Metallica - Frantic Chords & Tabs

 

Frantic Chords & Tabs

Metallica Chords & Tabs

Version: 11 Type: Tab 0 ratings
1 star 2 stars 3 stars 4 stars 5 stars
comments

Frantic Tab

   
"Frantic"

by Metallica
written by Hetfield/Ulrich/Hammett/Rock

available on "St. Anger" album

tabbed by Tero Saikkonen from Finland
tsslayer@luukku.com
www.pureheavymetal.cjb.net


Guitars Dropped-C tuning (Strings on D) 
(like all songs in "st. Anger" album, except 
"Dirty Window"(D# dropped-C#) "Invisible Kid"(A# dropped-G#)
 and "The Unnamed Feeling"(C dropped-A#))

6=C 3=F
5=G 2=A
4=C 1=D



Intro
|----------------------------| -8-
|----------------------------|  T
|----------------------------|  I
|----------------------------|  M
|--------------------0-------|  E
|-0-0-0-0-0-0-0-0-0--0-------|  S




 GTR I
|---------------------------------|
|---------------------------------|
|---------------------------------|
|---------------------------------|
|---------------------------------| -16-
|-6---3---0-0-0-0-5---0-0-0-0-0-0-|  T
|                                 |  I
|GTR II                           |  M
|---------------------------------|  E
|---------------------------------|  S
|---------------------------------|
|---------------------------------|
|---------------------------------|
|-18--15--0-0-0-0-17--0-0-0-0-0-0-|



BAND TACET (Silence)

/half-acoustic/
|--------------------------------------------------------
|--------------------------------------------------------
|--------------------------------------------------------
|--------------------------------------------------------
|--------------------------------------------------------
|-18--15--0--17----17----17--18---15--0--17----17----17--

------------------------------------------------------|
------------------------------------------------------|
------------------------------------------------------|
------------------------------------------------------|
------------------------------------------------------|
-18--15--0--17----17----17--18--15--0--0--0--0--0--0--|


BAND IN
MAIN RIFF
/distortion/ (GTRs I & II plays that riff, GTR III plays one octave lower same riff)
|--------------------------------------------------------
|--------------------------------------------------------
|--------------------------------------------------------
|--------------------------------------------------------
|--------------------------------------------------------
|-18--15--0--17----17----17--18---15--0--17----17----17--

------------------------------------------------------|  -4-
------------------------------------------------------|   T
------------------------------------------------------|   I
------------------------------------------------------|   M
------------------------------------------------------|   E
-18--15--0--17----17----17--18--15--0--0--0--0--0--0--|   S



VERSERIFF

("If i could have my wasted days back...")
|-------------------------| -8-
|-------------------------|  T
|-------------------------|  I
|-------------------------|  M
|-6\-3--0--0--0--0--0--0--|  E
|-6\-3--0--0--0--0--0--0--|  S


VERSERIFF 2
|-------------------------------------------------| -2-
|-------------------------------------------------|  T
|-------------------------------------------------|  I
|-------------------------------------------------|  M
|-2*-3--3--3--2--2--2--2--3--3--3--3--2--2--2--2--|  E
|-2*-3--3--3--2--2--2--2--3--3--3--3--2--2--2--2--|  S
  (* Play only first time, second time play G=3)


VERSE
|-------------------------| -4-
|-------------------------|  T
|-------------------------|  I
|-------------------------|  M
|-6\-3--0--0--0--0--0--0--|  E
|-6\-3--0--0--0--0--0--0--|  S


/half-acoustic/
|--------------------------------------------------------|
|--------------------------------------------------------|
|--------------------------------------------------------|
|--------------------------------------------------------|
|--------------------------------------------------------|
|-18--15--0--17----17----17--18---15--0--17----17----17--|



("You live it of lie it...!!")
/distortion/
GTR I
|--------------------------------------------------------|
|--------------------------------------------------------|
|--------------------------------------------------------|
|--------------------------------------------------------|
|--------------------------------------------------------|
|-18--15--0--17----17----17--18---15--0--17----17----17--|
|                                                        |
|GTR II                                                  |
|--------------------------------------------------------|
|--------------------------------------------------------|
|--------------------------------------------------------|
|--------------------------------------------------------|
|-6---3---0--5-----5-----5---6----3---0--5-----5-----5---|
|-6---3---0--5-----5-----5---6----3---0--5-----5-----5---|



("You live it of lie it..." (Whispering)
/half-acoustic/
|--------------------------------------------------------|
|--------------------------------------------------------|
|--------------------------------------------------------|
|--------------------------------------------------------|
|--------------------------------------------------------|
|-18--15--0--17----17----17--18---15--0--17----17----17--|


("My lifestyle determines my deathstyle...")
/distortion/
|----------------------------| -4-
|----------------------------|  T
|----------------------------|  I
|----------------------------|  M
|--------------------0-------|  E
|-0-0-0-0-0-0-0-0-0--0-------|  S


/acoustic/               ("Keep searching....")
 GTR I
|-------------------------------------------------|
|-------------------------------------------------|
|-------------------------------------------------|
|-------------------------------------------------|
|-11---8---10-------------11---8---10-------------|
|-------------------------------------------------|   -4-
|                                                 |
|GTR II                                           |    T
|-------------------------------------------------|
|-!!! PLAY THIS ONLY 2ND AND 4TH TIME !!!---------|    I
|-------------------------------------------------|
|-------------------------------------------------|    M
|-------------------------------------------------|
|-12---10---9---\5--------12---10---9---\5--------|    E
|                                                 |
|GTR III Plays on background                      |    S
| G                                               |
|-------------------------------------------------|
|-------0----(3)----0-----------0----(3)----0-----|
|----0-----0-----0-----0-----0-----0-----0-----0--|
|-0-----------------------0-----------------------|
|-------------------------------------------------|
|-------------------------------------------------|


/distortion/
   _________________________________________________
 _|1, 2, 3 times             |4th time              |_
| |--------------------------|----------------------| |
|o|--------------------------|----------------------|o|
| |--------------------------|----------------------| |
| |--------------------------|----------------------| |
|o|-----------------0--0--0--|----------------------|o|
|_|-18----15--17----0--0--0--|-18----15--17----17\5-|_|
      ////  //  ///              ////  //

MAINRIFF
|--------------------------------------------------------
|--------------------------------------------------------
|--------------------------------------------------------
|--------------------------------------------------------
|--------------------------------------------------------
|-18--15--0--17----17----17--18---15--0--17----17----17--

------------------------------------------------------|  -2-
------------------------------------------------------|   T
------------------------------------------------------|   I
------------------------------------------------------|   M
------------------------------------0--0--0--0--0--0--|   E
-18--15--0--17----17----17--18--15--0--0--0--0--0--0--|   S


THEN PLAY: 
       VERSERIFF   x 8

       VERSERIFF2  x 2

       VERSERIFF   x 4

THEN:

/half-acoustic/
|--------------------------------------------------------|
|--------------------------------------------------------|
|--------------------------------------------------------|
|--------------------------------------------------------|
|--------------------------------------------------------|
|-18--15--0--17----17----17--18---15--0--17----17----17--|


[ Tab from: http://www.guitartabs.cc/tabs/m/metallica/frantic_tab_ver_11.html ]
("You live it of lie it...!!")
/distortion/
GTR I
|--------------------------------------------------------|
|--------------------------------------------------------|
|--------------------------------------------------------|
|--------------------------------------------------------|
|--------------------------------------------------------|
|-18--15--0--17----17----17--18---15--0--17----17----17--|
|                                                        |
|GTR II                                                  |
|--------------------------------------------------------|
|--------------------------------------------------------|
|--------------------------------------------------------|
|--------------------------------------------------------|
|-6---3---0--5-----5-----5---6----3---0--5-----5-----5---|
|-6---3---0--5-----5-----5---6----3---0--5-----5-----5---|



("You live it of lie it..." (Whispering)
/half-acoustic/
|--------------------------------------------------------|
|--------------------------------------------------------|
|--------------------------------------------------------|
|--------------------------------------------------------|
|--------------------------------------------------------|
|-18--15--0--17----17----17--18---15--0--17----17----17--|


("My lifestyle determines my deathstyle...")
/distortion/
|----------------------------| -4-
|----------------------------|  T
|----------------------------|  I
|----------------------------|  M
|--------------------0-------|  E
|-0-0-0-0-0-0-0-0-0--0-------|  S


/acoustic/               ("Keep searching....")
 GTR I
|-------------------------------------------------|
|-------------------------------------------------|
|-------------------------------------------------|
|-------------------------------------------------|
|-11---8---10-------------11---8---10-------------|
|-------------------------------------------------|   -4-
|                                                 |
|GTR II                                           |    T
|-------------------------------------------------|
|-!!! PLAY THIS ONLY 2ND AND 4TH TIME !!!---------|    I
|-------------------------------------------------|
|-------------------------------------------------|    M
|-------------------------------------------------|
|-12---10---9---\5--------12---10---9---\5--------|    E
|                                                 |
|GTR III Plays on background                      |    S
| G                                               |
|-------------------------------------------------|
|-------0----(3)----0-----------0----(3)----0-----|
|----0-----0-----0-----0-----0-----0-----0-----0--|
|-0-----------------------0-----------------------|
|-------------------------------------------------|
|-------------------------------------------------|


/distortion/
   _________________________________________________
 _|1, 2, 3 times             |4th time              |_
| |--------------------------|----------------------| |
|o|--------------------------|----------------------|o|
| |--------------------------|----------------------| |
| |--------------------------|----------------------| |
|o|-----------------0--0--0--|----------------------|o|
|_|-18----15--17----0--0--0--|-18----15--17----17\5-|_|
      ////  //  ///              ////  //

 GTR I
|---------------------------------|
|---------------------------------|
|---------------------------------|
|---------------------------------|
|---------------------------------| -12-
|-6---3---0-0-0-0-5---0-0-0-0-0-0-|  T
|                                 |  I
|GTR II                           |  M
|---------------------------------|  E
|---------------------------------|  S
|---------------------------------|
|---------------------------------|
|---------------------------------|
|-18--15--0-0-0-0-17--0-0-0-0-0-0-|


 GTR I   ("Do i have the strength, to know how iŽll go...")
|---------------------------------|
|---------------------------------|
|---------------------------------|
|---------------------------------|
|---------------------------------| -12-
|-6---3---0-0-0-0-5---0-0-0-0-0-0-|  T
|                                 |  I
|GTR II                           |  M
|---------------------------------|  E
|---------------------------------|  S
|---------------------------------|
|-18--15--0-0-0-0-17--0-0-0-0-0-0-|
|---------------------------------|
|---------------------------------|


 GTR I
|---------------------------------|
|---------------------------------|
|---------------------------------|
|---------------------------------|
|---------------------0-----------| -4-
|-0-0-0-0-0-0-0-0-0---0-----------|  T
|                                 |  I
|GTR II                           |  M
|---------------------------------|  E
|---------------------------------|  S
|---------------------------------|
|---------------------------------|
|---------------------------------|
|-18--15--0-0-0-0-17--0-0-0-0-0-0-|

                      ____________________________
 _                   |1,2,3 times   |4th time     |_
| |---------------------------------|-------------| |
|o|---------------------------------|-------------|o|
| |---------------------------------|-------------| |
| |---------------------------------|-------------| |
|o|---------------------0-----------|-3--3--3--3--|o|
|_|-0-0-0-0-0-0-0-0-0---0-----------|-3--3--3--3--|_|


/acoustic/               ("Keep searching....")
 GTR I
|-------------------------------------------------|
|-------------------------------------------------|
|-------------------------------------------------|
|-------------------------------------------------|
|-11---8---10-------------11---8---10-------------|
|-------------------------------------------------|   -4-
|                                                 |
|GTR II                                           |    T
|-------------------------------------------------|
|-!!! PLAY THIS ONLY 2ND AND 4TH TIME !!!---------|    I
|-------------------------------------------------|
|-------------------------------------------------|    M
|-------------------------------------------------|
|-12---10---9---\5--------12---10---9---\5--------|    E
|                                                 |
|GTR III Plays on background                      |    S
| G                                               |
|-------------------------------------------------|
|-------0----(3)----0-----------0----(3)----0-----|
|----0-----0-----0-----0-----0-----0-----0-----0--|
|-0-----------------------0-----------------------|
|-------------------------------------------------|
|-------------------------------------------------|


/distortion/
   _________________________________________________
 _|1, 2, 3 times             |4th time              |_
| |--------------------------|----------------------| |
|o|--------------------------|----------------------|o|
| |--------------------------|----------------------| |
| |--------------------------|----------------------| |
|o|-----------------0--0--0--|----------------------|o|
|_|-18----15--17----0--0--0--|-18----15--17----17\5-|_|
      ////  //  ///              ////  //


|-----------------------------------------| -2-
|-----------------------------------------|  T
|-----------------------------------------|  I
|-----------------------------------------|  M
|-0--0----------------0--0----------------|  E
|-0--0----------------0--0----------------|  S


OUTRORIFF
|---------------------------------------------------------------
|---------------------------------------------------------------
|---------------------------------------------------------------
|---------------------------------------------------------------
|---------------------------------------------------------------
|-10---12-12--10-12-10-12---12---10---12-12--12-12-10-12---12---


----------------------------------------------------------------| -3-
----------------------------------------------------------------|  T
----------------------------------------------------------------|  I
----------------------------------------------------------------|  M
-----------------------------------------------------10---------|  E
-10---12-12--10-12-10-12---12---10---12-12--12-10-12----12-10---|  S


|-------|
|-------|                              TABBED BY
|-------|                     T E R O   S A I K K O N E N
|-------|    THE
|-12\---|    END                     contact me to:
|-12\---|                t s s l a y e r @ l u u k k u . c o m
Comments