Metallica - Frantic Chords & Tabs

 

Frantic Chords & Tabs

Metallica Chords & Tabs

Version: 1 Type: Tab 1 rating
1 star 2 stars 3 stars 4 stars 5 stars
comments

Frantic Tab

Hi my Metallica Brothers!!!!
I'm 100% sure that this is the right tab of "Frantic"
You must play it in Dropped C

Intro
1.Guitar
C--0-0-0-0-0-0-------------12-12-12-12-12-0---------------------
G--5-5-5-5-5-5-4 times-----12-12-12-12-12-0---------------------
C--0-0-0-0-0-0-------------12-12-12-12-12-0---------------------
After the 1. part the second guitar plays this with the second part of guitar one
C--------------------------------
G--------------------------------
C--18-0-0-12-0-------------------

then both guitar plays this:

C---------------------
G--------------------- thats the same as the beginning of the end
C---17-18-0-0-0-0-----
Bridge:

C--18-15-0-17-17--17-18-15-0-17-17-17-18-15---(xxxx)-------

Verse:
C--6-----3-----------------------------
G--6-----3----------------------------
C--6-----3--0-0-0-0-0-0----------------
end of verse:
C-12-12-12-12---------------------
G-12-12-12-12--------------------
C-12-12-12-12---------------------

my lifestyle:
[ Tab from: http://www.guitartabs.cc/tabs/m/metallica/frantic_tab.html ]
C-12-12-12-12---------
G-12-12-12-12-----------
C-12-12-12-12-----------

Chorus

C-6-3-0-5---6-3-0-5--6-3-0-5--6-3-0-5--0-----------
G--------------------------------------------------
C--------------------------------------------------

Keep searching.......
Kirk plays:
D-------------------------------------
A--15-12-14---15-12-14---14-12-11---
F---------------------------------11-
C------------------------------------

James:

D-------------------------------------
A------0-------0-------0------0-------
F----0---0---0---0---0---0--0---0-----
C--6-------5-------3------5-----------

end:
C-0-0------0-0----0-0----------------------
G-0-0------0-0----0-0----------------------
C-0-0------0-0----0-0----------------------

C-------------------------------------------
G-------------------------------------------
C-0-0-12-12-0-12-14-12-0--------------------


C--12--14--12--14-------------------
G--12--14--12--14-----------------    a thousend times
C--12--14--12--14------------------- 

C--12-
G--12-
C--12-

thats it hope i heaven`t forgotten anything bye 


Christian




Comments