Metallica - Frantic Chords & Tabs

 

Frantic Chords & Tabs

Metallica Chords & Tabs

Version: 1 Type: Bass Tab 0 ratings
1 star 2 stars 3 stars 4 stars 5 stars
comments

Frantic Bass Tab

   
Song:Frantic
Artist:Metallica
Album:St. Anger
Tabber:RobertRomanos


Intro 1                                      x4
G|----------------------------------------
D|----------------------------------------
A|---------------5------------------5-----
E|-0-0-0-0-0-0-0------0-0-0-0-0-0-0-------

Intro 2                                      x3
G|----------------------------------------
D|----------------------------------------
A|----------------------------------------
E|-6-3-0-0-0-0-5-0-0-0-0-0-6-3-0-0-0-0-5--

Faster                                       x2
G|-----------------------------------------
D|-----------------------------------------
A|-----------------------------------------
E|-63-0000-5-63-0000-5-63-0000-5-63-0000-5-

Pre-Pre Verse                              x3
G|--------------------------------------
D|--------------------------------------
A|-12-10-0-11-11-11---12-10-0-11-11-11--
E|--------------------------------------

G|--------------------------------------
D|--------------------------------------
A|-12-10-0-11-11-11--12-10-0-0-0-0-0-0--
E|--------------------------------------

Pre Verse                                   x2     
G|---------------------------------------------------
D|---------------------------------------------------
A|---------------------------------------------------
E|-63-0-5-5-5--63-0-5-5-5--63-0-5-5-5--63-0000000----
[ Tab from: http://www.guitartabs.cc/tabs/m/metallica/frantic_btab.html ]
Verse                                       x2
G|------------------------------------------------
D|------------------------------------------------
A|------------------------------------------------
E|--6-0-0-0-0-0-3-0-0-0-0-0-6-0-0-0-0-0-3-0-0-0-0-

Mid-Verse
G|-------------------------------------
D|-------------------------------------
A|-------------------------------------
E|-5555555-6666666-5555555-6666666-----

Verse x1

After Verse                         x3
G|--------------------------------------
D|--------------------------------------
A|-12-10-0-11-11-11---12-10-0-11-11-11--
E|--------------------------------------

Chorus
G|---------------------------------------------------
D|---------------------------------------------------
A|---------------------------------------------------
E|-0-0-0-0-0-0--0-0-0-0-0-0--0-0-0-0-0-0--0-0-0-0-0-0

After Chorus             x16
G|---------------------   
D|--------------------- 
A|--------3--3---------    
E|--4--2--------4------    

Frantic Tic Tic Tic Tic Toc            x4
G|----------------------------------------
D|----------------------------------------
A|----------------------------------------
E|-6-3-0-0-0-0-5-0-0-0-0-0-6-3-0-0-0-0-5--


Pre-Pre Verse  x2
Verse x2
Mid-Verse x1
Verse x1
After Verse x3
Chorus
After Chorus x16
Frantic tic tic tic toc x4
Faster x6
Chorus x2 
After Chorus x16
Frantic tic tic tic toc X4

Break
G|----------------------------------------
D|----------------------------------------
A|----------------------------------------
E|--00---00---00---00---00---00---00---00-

Ending                     x3
G|----------------------------------------
D|----------------------------------------
A|----------------------------------------
E|-63-5555-63-5555-63-5555-63-5555-63-5555
Comments