Metallica - Four Horsemen Chords & Tabs

 

Four Horsemen Chords & Tabs

Metallica Chords & Tabs

Version: 1 Type: Bass Tab 0 ratings
1 star 2 stars 3 stars 4 stars 5 stars
comments

Four Horsemen Bass Tab

btab

band:metallica	
album:kill em all
song:four horsemen
by:brad coleman
   
 -------------------------------------------------------------------
 -------------------------------------------------------------------
 -3-5-3-7---------------3-5-3-7-------------------3-5-3-------------
 --3-----------0-0-------3-----------0-0-----------3----------------
 
#____________________________________________________________________# 
 ------------------------------------------------------------------- # 
 ------------------------------------------------------------------- #
 ------7------7------7-5-5------7------7------7-3-5------7------7--- #
 -0-0-0--0-0-0--0-0-0------0-0-0--0-0-0--0-0-0------0-0-0--0-0-0---- #
                                                                     #
                                                                     #
 ------------------------------------------------------------------- #
 ------------------------------------------------------------------- #
 ------7-10-7-3-5-3-7----------------------------------------------- #
 -0-0-0--------3---------------------------------------------------- #
#____________________________________________________________________#
 do these 2 twice ^^

 
 -------------------------------------------------------------------
 ----------------------------------5-7-9----------------------------
 -7-----7-5-----5-3-----3-2-3-5-7-9---------------------------------
 -------------------------------------------------------------------
 
 
 -------------------------------------------------------------------
 -------------------------------------------------------------------
 -7-----7-5----5-3--2-5-3-7-----------------3-5-3-7-----------------
 --------------------3-----------0-0---------3----------------------
[ Tab from: http://www.guitartabs.cc/tabs/m/metallica/four_horsemen_btab.html ]
#___________________________________________________________________#
 -------------------------------------------------------------------#
 -------------------------------------------------------------------#
 -8-7-7------------------------------8-7-7--------------------------#
 -------0-0-0-0-0-0-0-0-0-0-0-0-0-0-0-------0-0-0-0-0-0-0-0-0-0-0---#
                                                                    #
                                                                    #
 -------------------------------------------------------------------#
 -------------------------------------------------------------------#
 --------8----------------------------------------------------------#
 -0-0-0-0-----------------------------------------------------------#
#___________________________________________________________________#
 2x ^^

 
 -9-7-7-------------9-7-7-------------------------------------------
 ----9-9-8-7-5-7-5-7---9-9-8-7--------------------------------------
 ---------------7---------------3-4-5-------8-7-5-7-----3-4-5-------
 ------------------------------------0-0-5-7-------0-0-0------------


 -------------------------------------------------------------------
 -------------------------------------------------------------------
 -7-7-5-7-5-5-3-5-3-3-2-3-2-2---7-7-5-7-9-9-7-9-10-10-9-10-14-------
 -------------------------------------------------------------------


 -9-9-7-9-11-11-9-11-12-12-11-12-16-16------------------------------
 -------------------------------------------------------------------
 -------------------------------------------------------------------
 -------------------------------------------------------------------

thats all of it but your gonna have to figure out what order to put it 
in.   any problems then just email me at ibanez_bassist2003@yahoo.com
  i tabbed this because nobodys ever tabbed a four horesmen tab at an
of the tab sites. well i cant find any thing.




	                                                             
Comments