Metallica - For Whom The Bell Tolls Chords & Tabs

 

For Whom The Bell Tolls Chords & Tabs

Metallica Chords & Tabs

Version: 8 Type: Tab 3 ratings
1 star 2 stars 3 stars 4 stars 5 stars
comments

For Whom The Bell Tolls Tab

Song: For Whom the Bell Tolls
Artist: Metallica
Album: Ride the Lightning
Tabber: Torkil, 16, Norway


INTRO:

     w/Bells                            12x
e||-------------------|------------------||
B||o------------------|-----------------o||
G||-------------------|------------------||
D||-------------------|------------------||
A||o-------4-4---4-4--|-2---------------o||
E||--------2-2---2-2--|-0----------------||
PM

e|-----------------||---------------------------|--------------------------|
B|-----------------||o--------------------------|--------------------------|
G|-----------------||---------------------------|--------------------------|
D|-----------------||---------------------------|-----------------------2--|
A|------4-4---4-4--||o--2--5--4--3--2--5--4--3--|--2--5--4--3--2--5--6--0--|
E|------2-2---2-2--||---0--3--2--1--0--3--2--1--|--0--3--2--1--0--2--3-----|
PM                      .  .  .  .  .  .  .  .     .  .  .  .  .  .  .  
                                                        2x
e|--------------------------|---------------------------||-------------------|-------------------|
B|--------------------------|--------------------------o||-------------------|-------------------|
G|--------------------------|---------------------------||-------------------|-------------------|
D|--------------------------|-----------------------4---||--2----------------|--(2)--------------|
A|--2--5--4--3--2--5--4--3--|--2--5--4--3--2--4--5--2--o||--2----------------|--(2)--------------|
E|--0--3--2--1--0--3--2--1--|--0--3--2--1--0--2--3------||--0----------------|--(0)--------------|
PM  .  .  .  .  .  .  .  .     .  .  .  .  .  .  .

----------------------------------------------------------------------------------------------------
----------------------------------------------------------------------------------------------------


Two guitars: 

Guitar 1:
e||-----------------------------------------|-----------------------------------------|
H||o----------------------------------------|-----------------------------------------|
G||--12--9--11----9--11--12--9--11----9--11-|--12--9--11----9--11--12--9--11----9--11-|
D||------------12------------------12-------|------------12------------------12-------|
A||o----------------------------------------|-----------------------------------------|_
E||-----------------------------------------|-----------------------------------------| |
PM (All are palm muted)                                                                 |
                                                                                        |
Guitar 2:                                                                               |
e||-----------------------------------------|-----------------------------------------|_|
H||o----------------------------------------|-----------------------------------------|
G||-----------------------------------------|-----------------------------------------|
D||-----------------------------------------|-----------------------------------------|
A||o--2-------------------------------------|-(2)-------------------------------------|
E||---0-------------------------------------|-(0)-------------------------------------|
PM



Guitar 1:
e|----------------------------------------|-----------------------------------------|
H|----------------------------------------|-----------------------------------------|
G|-12--9--11----9--11--12--9--11----9--11-|--12--9--11----9--11--12--9--11----9--11-|
D|-----------12------------------12-------|------------12------------------12-------|
A|----------------------------------------|-----------------------------------------|_
E|----------------------------------------|-----------------------------------------| |
PM (All are palm muted)                                                               |
                                                                                      |
Guitar 2:                                                                             |
e|----------------------------------------|-----------------------------------------|_|
H|----------------------------------------|-----------------------------------------|
G|----------------------------------------|-----------------------------------------|
D|----------------------------------------|-----------------------------------------|
A|--5-------------------------------------|--5-(mute-at-once)-----------------------|
E|--3-------------------------------------|--3--------------------------------------|
PM



Guitar 1:
e|----------------------------------------|-----------------------------------------|
H|----------------------------------------|-----------------------------------------|
G|-12--9--11----9--11--12--9--11----9--11-|--12--9--11----9--11--12--9--11----9--11-|
D|-----------12------------------12-------|------------12------------------12-------|
A|----------------------------------------|-----------------------------------------|_
E|----------------------------------------|-----------------------------------------| |
PM (All are palm muted)                                                               |
                                                                                      |
Guitar 2:                                                                             |
e|----------------------------------------|-----------------------------------------|_|
H|----------------------------------------|-----------------------------------------|
G|----------------------------------------|-----------------------------------------|
D|----------------------------------------|-----------------------------------------|
A|--2-------------------------------------|-(2)-------------------------------------|
E|--0-------------------------------------|-(0)-------------------------------------|



Guitar 1:                                                                            2x
e|----------------------------------------|------------------------------------------||
H|----------------------------------------|-----------------------------------------o||
G|-12--9--11----9--11--12--9--11----9--11-|--12--9--11----9--11--12--9--11----9--11--||
D|-----------12------------------12-------|------------12------------------12--------||
A|----------------------------------------|-----------------------------------------o||_
E|----------------------------------------|------------------------------------------|| |
PM (All are palm muted)                                                                 |
                                                                                        |
Guitar 2:                                                                            2x |
e|----------------------------------------|------------------------------------------||_|
H|----------------------------------------|-----------------------------------------o||
G|----------------------------------------|------------------------------------------||
D|----------------------------------------|--5-------------------2-------------------||
A|--5-------------------------------------|--3-------------------0------------------o||
E|--3-------------------------------------|------------------------------------------||

----------------------------------------------------------------------------------------------------
----------------------------------------------------------------------------------------------------


CHORUS:
                                                                                                2x
e||---------------------|--------------------|---------------------|----------------------------||
B||o--------------------|--------------------|---------------------|---------------------------o||
G||---------------------|--------------------|---------------------|----------------------------||
D||------------------2--|-------------3------|------------------2--|----------------3-----------||
A||o-------5---------0--|---------5---1---4--|--------5---------0--|--------5-------1---4---3--o||
E||--0-0-0-3---0-0-0----|---0-0-0-3-------2--|--0-0-0-3---0-0-0----|--0-0-0-3-0-0-------2---1---||
PM   x x x     x x x        x x x               x x x     x x x       x x x   x x

----------------------------------------------------------------------------------------------------
----------------------------------------------------------------------------------------------------


VERSE:
[ Tab from: http://www.guitartabs.cc/tabs/m/metallica/for_whom_the_bell_tolls_tab_ver_8.html ]
e||-------------------------|-------------------------|
H||o------------------------|-------------------------|
G||-------------------------|-------------------------|
D||-------------------------|-------------------------|
A||o--2---------------------|-(2)---------------------|
E||---0---------------------|-(0)---------------------|
PM

e|------------------------|-------------------------|
H|------------------------|-------------------------|
G|------------------------|-------------------------|
D|------------------------|-------------------------|
A|--5---------------------|--5-(mute-at-once)-------|
E|--3---------------------|--3----------------------|
PM

e|------------------------|-------------------------|
H|------------------------|-------------------------|
G|------------------------|-------------------------|
D|------------------------|-------------------------|
A|--2---------------------|-(2)---------------------|
E|--0---------------------|-(0)---------------------|
PM
                                                     2x
e|------------------------|--------------------------||
H|------------------------|-------------------------o||
G|------------------------|--------------------------||
D|------------------------|--5-----------2-----------||
A|--5---------------------|--3-----------0----------o||
E|--3---------------------|--------------------------||
PM

---------------------------------------------------------------------------------------------------
----------------------------------------------------------------------------------------------------


CHORUS:
                                                                                                2x
e||---------------------|--------------------|---------------------|----------------------------||
B||o--------------------|--------------------|---------------------|---------------------------o||
G||---------------------|--------------------|---------------------|----------------------------||
D||------------------2--|-------------3------|------------------2--|----------------3-----------||
A||o-------5---------0--|---------5---1---4--|--------5---------0--|--------5-------1---4---3--o||
E||--0-0-0-3---0-0-0----|---0-0-0-3-------2--|--0-0-0-3---0-0-0----|--0-0-0-3-0-0-------2---1---||
PM   x x x     x x x        x x x               x x x     x x x       x x x   x x

----------------------------------------------------------------------------------------------------
----------------------------------------------------------------------------------------------------


INTERLUDE: 

Two guitars: Guitar 2 plays those with *'s behind, guitar 1 plays those without.

Also here I think the solo parts are palm muted.

e|-------------------------------------------|-------------------------------------|
B|-------------------------------------------|-------------------------------------|
G|--12--9--11----9---------------------------|-------------------------------------|
D|------------12----11--12--9--11-----9------|-------------------------------------|
A|--2*-----------------------------12----10--|--2*---------------------------------|
E|--0*---------------------------------------|--0*---------------------------------|
PM

e|-------------------------------------------|-------------------------------------|
B|-------------------------------------------|-------------------------------------|
G|--12--9--11----9---------------------------|-------------------------------------|
D|------------12----11--12--9--11-----9------|-------------------------------------|
A|--2*-----------------------------12----10--|--5*-----5*5*5*-5*----5*5*5*---------|
E|--0*---------------------------------------|--3*-----3*3*3*-3*----3*3*3*---------|
PM

e|-------------------------------------------|-------------------------------------|
B|-------------------------------------------|-------------------------------------|
G|--12--9--11----9---------------------------|-------------------------------------|
D|------------12----11--12--9--11-----9------|--4*---------------------------------|
A|--2*-----------------------------12----10--|--2*---------------------------------|
E|--0*---------------------------------------|-------------------------------------|
PM

e|-------------------7-------------------7---|--7----------------------------------|
B|--8------7-----------8------10--7---8------|-------------------------------------|
G|-----9-------7--9--------9-----------------|-------------------------------------|
D|--9*-----11*----9*---12*-9*-11*-----9*-----|--2*---------------------------------|
A|-----12*-----12*--10*-----------12*----10*-|--2*---------------------------------|
E|-------------------------------------------|--0*---------------------------------|
PM

e|-------------------7-------------------7---|-------------------------------------|
B|--8------7-----------8------10--7---8------|-------------------------------------|
G|-----9-------7--9--------9-----------------|-------------------------------------|
D|--9*-----11*----9*---12*-9*-11*-----9*-----|-------------------------------------|
A|-----12*-----12*--10*-----------12*----10*-|--5*-----5*5*5*-5*----5*5*5*---------|
E|-------------------------------------------|--3*-----3*3*3*-3*----3*3*3*---------|
PM

e|-------------------7-------------------7---|--------------------------------------|
B|--8------7-----------8------10--7---8------|--------------------------------------|
G|-----9-------7--9--------9-----------------|--------------------------------------|
D|--9*-----11*----9*---12*-9*-11*-----9*-----|--4*----------------------------------|
A|-----12*-----12*--10*-----------12*----10*-|--2*----------------------------------|
E|-------------------------------------------|--------------------------------------|
PM

----------------------------------------------------------------------------------------------------
----------------------------------------------------------------------------------------------------


VERSE:

e||-------------------------|-------------------------|
H||o------------------------|-------------------------|
G||-------------------------|-------------------------|
D||-------------------------|-------------------------|
A||o--2---------------------|-(2)---------------------|
E||---0---------------------|-(0)---------------------|
PM

e|------------------------|-------------------------|
H|------------------------|-------------------------|
G|------------------------|-------------------------|
D|------------------------|-------------------------|
A|--5---------------------|--5-(mute-at-once)-------|
E|--3---------------------|--3----------------------|
PM

e|------------------------|-------------------------|
H|------------------------|-------------------------|
G|------------------------|-------------------------|
D|------------------------|-------------------------|
A|--2---------------------|-(2)---------------------|
E|--0---------------------|-(0)---------------------|
PM
                                                     2x
e|------------------------|--------------------------||
H|------------------------|-------------------------o||
G|------------------------|--------------------------||
D|------------------------|--5-----------2-----------||
A|--5---------------------|--3-----------0----------o||
E|--3---------------------|--------------------------||
PM

----------------------------------------------------------------------------------------------------
----------------------------------------------------------------------------------------------------


CHORUS:
                                                                                                2x
e||---------------------|--------------------|---------------------|----------------------------||
B||o--------------------|--------------------|---------------------|---------------------------o||
G||---------------------|--------------------|---------------------|----------------------------||
D||------------------2--|-------------3------|------------------2--|----------------3-----------||
A||o-------5---------0--|---------5---1---4--|--------5---------0--|--------5-------1---4---3--o||
E||--0-0-0-3---0-0-0----|---0-0-0-3-------2--|--0-0-0-3---0-0-0----|--0-0-0-3-0-0-------2---1---||
PM   x x x     x x x        x x x               x x x     x x x       x x x   x x

----------------------------------------------------------------------------------------------------
----------------------------------------------------------------------------------------------------


OUTRO: Not in strict time

w/Bells                                    Repeat several times till fadeout
e|--------------------------------------------------------|
B|--------------------------------------------------------|
G|--------------------------------------------------------|
D|--9----------11--11------9----------11--11------12--12--|
A|--7----------9---9-------7----------9---9-------10--10--|
E|--0----------------------0------------------------------|
PM
Comments