Metallica - For Whom The Bell Tolls Chords & Tabs

 

For Whom The Bell Tolls Chords & Tabs

Metallica Chords & Tabs

Version: 7 Type: Tab 1 rating
1 star 2 stars 3 stars 4 stars 5 stars
comments

For Whom The Bell Tolls Tab

TIME: 0:00 – 0:40

E---------------------------------------------------------------- 
B--0-------0-----------------------------------------------------
G---------------------------------------------------------------- 
D-------------4--4--4--4—(2)---12--11--10--9---------12----------- 8x
A-------------4--4--4--4—(2)------------------10--9--------------- 
E-------------2--2--2--2—(0)-----------------------------10—(9)---

TIME:  0:40 – 0:56
E---------------------------------------------------------------- 
B---------------------------------------------------------------- 
G---------------------------------------------------------------- 
D--4--4—(2)----4--4—(2)----4--4—(2)----4--4—(2)----4--4----------
A—-4--4—(2)----4--4—(2)----4--4—(2)----4--4—(2)----4--4----------
E—-2--2—(0)----2--2—(0)----2--2—(0)----2--2—(0)----2--2----------

TIME:  0:57 – 1:13                               
E---------------------------------------------------------------- 
B---------------------------------------------------------------- 
G--------------------------------3-------------------------------
D--2-5-4-3-2-5-4-3-2-5-4-3-2-4-5-3------------------------------- 3x
A--2-5-4-3-2-5-4-3-2-5-4-3-2-4-5-1-------------------------------
E--0-3-2-1-0-3-2-1-0-3-2-1-0-2-3---------------------------------

TIME:  1:17 – 1:47
E---------------------------------------------------------------- 
B--8-----7--------7--8----7--------7-----------------------------
G-----9-----7--9-------9-----7--9--------------------------------
D---------------------------------------------------------------- 
A---------------------------------------------------------------- 
E---------------------------------------------------------------- 

TIME:  1:49 – 2:06                                              Make His Fight ...
E---------------------------------------------------------------- 
B---------------------------------------------------------------- 
G---------------------------------------------------------------- 
D-----------------2-----------3--------------------2------------- 2x
A--------5--------0--------5--1--4--------5--------0-------5-----
E--0-0-0-3--0-0-0----0-0-0-3-----2--0-0-0-3--0-0-0---0-0-0-3-0-(0)
[ Tab from: http://www.guitartabs.cc/tabs/m/metallica/for_whom_the_bell_tolls_tab_ver_7.html ]
TIME:  2:06 – 2:38         ... they surely know.
E---------------------------------------------------------------- 
B---------------------------------------------------------------- 
G---------------------------------------------------------------- 
D—(2)-----x---(2)--------(5)----(10)--(7)------------------------ 2x
A—(2)-----x---(2)--------(5)----(10)--(7)------------------------
E—(0)-----x---(0)--------(3)----(-8)--(5)------------------------ 

TIME:  2:38 – 2:55               For Whom The Bell Tollls... Time Marches On.
E---------------------------------------------------------------- 
B---------------------------------------------------------------- 
G---------------------------------------------------------------- 
D-----------------2-----------3--------------------2------------- 2x
A--------5--------0--------5--1--4--------5--------0-------5-----
E--0-0-0-3--0-0-0----0-0-0-3-----2--0-0-0-3--0-0-0---0-0-0-3-0-(0)



TIME:  2:55 – 3:19                     2,5     1,3,4,6.
E-------------------------------------------|--------------------- 
B-------------------------------------------|--------------------- 
G--12--9--11----9---------------------------|--------------------- 
D------------12----11--12--9--11-----9--10--|--(4)----------------
A---------------------------------12--------|--(2)----------------
E-------------------------------------------|--------------------- 

TIME: 3:19 – 3:51 Take a look...  -   Blinded Eyes to see.
E---------------------------------------------------------------- 
B---------------------------------------------------------------- 
G---------------------------------------------------------------- 
D—(2)-----x---(2)--------(5)----(10)--(7)------------------------ 2x
A—(2)-----x---(2)--------(5)----(10)--(7)------------------------
E—(0)-----x---(0)--------(3)----(-8)--(5)------------------------  

TIME: 3:52 – 4:08                For Whom The Bell Tollls... Time Marches On.

E---------------------------------------------------------------- 
B---------------------------------------------------------------- 
G---------------------------------------------------------------- 
D-----------------2-----------3--------------------2------------- 2x
A--------5--------0--------5--1--4--------5--------0-------5-----
E--0-0-0-3--0-0-0----0-0-0-3-----2--0-0-0-3--0-0-0---0-0-0-3-0-(0)
 
TIME:  4:08 – 5:11
E---------------------------------------------------------------- 
B---------------------------------------------------------------- 
G---------------------------------------------------------------- 
D--4--4-(2)---4-—4-—4--4—(2)------------------------------------- 10x 
A--4--4—(2)---4-—4-—4--4-(2)------------------------------------- 
E--2--2—(0)---2-—2-—2--2—(0)------------------------------------- 

 By: Doug Gill
 


 



Comments