Metallica - For Whom The Bell Tolls Chords & Tabs

 

For Whom The Bell Tolls Chords & Tabs

Metallica Chords & Tabs

Version: 6 Type: Tab 1 rating
1 star 2 stars 3 stars 4 stars 5 stars
comments

For Whom The Bell Tolls Tab

   
#----------------------------------PLEASE NOTE--------------------------------#
#This file is the author's own work and represents their interpretation of the#
#song. You may only use this file for private study, scholarship, or research.#
#-----------------------------------------------------------------------------#
#-- File created with Instab - http://www.pconline.com/~smcarey/instab.html --#
#-----------------------------------------------------------------------------#

Rythem To:

Author/Artist: Metallica
Title: For Whom the Bell Tolls
Album: Ride the Lightning
Transcribed by: fEAR fACTOR




W-Wole Note (4 beats)
H-Half Note (2 beats)
16-Sixteenth Note (16th of a beat)
h-Half Rest (2 beats)



   
------------|-----------------------------------------------------------------
------------|-----------------------------------------------------------------
------------|-----------------------------------------------------------------
-4-4--4-4-2-|-----------------------------------------------------------------
-4-4--4-4-2-|-----------------------------------------------------------------
-2-2--2-2-0-|12x--------------------------------------------------------------
 Jamyz-Rythem A                                                               

---------|---------|---------|------------------------------------------------
---------|---------|---------|------------------------------------------------
---------|---------|-------3-|------------------------------------------------
-2-5-4-3-|-2-5-4-3-|-2-3-4-3-|------------------------------------------------
-2-5-4-1-|-2-5-4-1-|-2-3-4-1-|------------------------------------------------
-0-3-2-1-|-0-3-2-1-|-0-1-2---|-4x---------------------------------------------
 Jaymz-Rythem B                                                               
[ Tab from: http://www.guitartabs.cc/tabs/m/metallica/for_whom_the_bell_tolls_tab_ver_6.html ]
---------|-----------|-----------|-----------|-----------|--------------------
---------|-----------|-----------|-----------|-----------|--------------------
---------|-----------|-----------|-----------|-----------|--------------------
-2-------|-7--7-7--7-|-2---------|7---11-9---|-2---------|--------------------
-2-------|-5--5-5--5-|-2---------|5---11-9---|-2---------|--------------------
-0-------|-5--5-5--5-|-0---------|5---9--7---|-0---------|-2x-----------------
 W         H  16-h 16  W          H   -16-     H                              
Jaymze-Rythem C
 This is also the riff played during the verses


---------|---------|-------------|--------------------------------------------
---------|---------|-------------|--------------------------------------------
---------|---------|---------3---|--------------------------------------------
-2-2-2-5-|-2-2-2-7-|-2-2-2-5-3-4-|--------------------------------------------
-2-2-2-5-|-2-2-2-7-|-2-2-2-5-1-4-|--------------------------------------------
-0-0-0-3-|-0-0-0-5-|-0-0-0-3---2-|-2x-----------------------------------------
 Jaymz-Rythem D       


Lyrics:

Make his fight on the hills in the early day
Constant chill deep inside
Shouting gun, on they run through the endless grey
On they fight, for they are right, yes, but who's to say?
For a hill, men will kill why? They do not know    
Suffered wounds test their pride
Men of five, still alive through the raging glow
Gone insaine from a pain that the surley know

         For whom the bell tolls
         Time marches on
         For whom the bell tolls

Take a look to the sky just before you die
It is the last time he will
Blackened roar, Massive roar fills his soul with a ruthless cry
Stranger now, are his eyes, to this mystery
He hears the silence so loud
Crack of sawn, all is gone except the will to be
Now they see what will be, blinded eyes to see

         For whom the bell tolls
         Time marches on
         For whom the bell tolls


Comments