Metallica - Fade To Black Chords & Tabs

 

Fade To Black Chords & Tabs

Metallica Chords & Tabs

Version: 13 Type: Tab 0 ratings
1 star 2 stars 3 stars 4 stars 5 stars
comments

Fade To Black Tab

   
Song:Fade To Black
Album:Ride The Lightning
Standard E tuning
Notation:^=bend
         p=pull off
         h=hammer on
         t=trill
         T=fret tap
         /\=slide up & down   
there is a horn intro,then hetfeild starts playing.

e)-----------------|----------------|----------------|
B)-----------------|----------------|----------------|
G)------0----------|------0---------|------0---------|
D)----4---4---4--4-|----4---4---4--4|----4---4---4--4|
A)--2-------2---5--|--0-------0---5-|--2-------2---5-|
E)-----------------|----------------|----------------|

e)----------------| He plays this once before kirk plays 
B)----------------| the solo
G)------2---------|
D)----2---2---2--2|
A)--4-------4---0-|
E)----------------|

Solo,clean

e)-------------------|---------------P--P----H-P----|
B)-----7----7-8-10-7-|-12-10-8-10--12-10-8--7-8-7---|
G)---7---------------|---------------------------9--|       
D)-9-----9-----------|------------------------------|
A)-------------------|------------------------------|
E)-------------------|------------------------------|

[ Tab from: http://www.guitartabs.cc/tabs/m/metallica/fade_to_black_tab_ver_13.html ]
                                               P       P
e)--H-P-------------------------------|------19-14---15-14-|
B)-7-8-7--7---------------P--8-7--8/10|----15-----15-------|
G)-------9-9-7-------7\6-7-6----------|--16---------16-----|
D)-------------7-9-9~-----------------|--------------------|
A)------------------------------------|--------------------|
E)------------------------------------|--------------------|

e)--------------------------------------------H--P-----|
B)-15---17-15-14-----^----H-------------H---14-15-14---|
G)---16----------16-14--14-16------H--14-16----------16|
D)---------------------------14--14-16-----------------|
A)-----------------------------------------------------|
E)-----------------------------------------------------|
                                      H  P         H  P
e)---H--P---17-15-14--15-17-14------14-15-14-----14-15-14|
B)-14-15-14--------------------15------------15----------|
G)-------------------------------16------------14--------|
D)-------------------------------------------------------|
A)-------------------------------------------------------|
E)-------------------------------------------------------|
                                                 H  H  P
e)-----17-15-14-|------------------------H--H--12-13-15-13-|
B)--15----------|------------------H---12-13-15------------|
G)--------------|----------H--H--12-14---------------------|
D)--------------|--H--H--12-14-15--------------------------|
A)--------------|12-14-15----------------------------------|
E)--------------|------------------------------------------|

e)-----17|      Thats all i can get, james plays notes      
B)--15---|      with afew notes next.Send corrections to 
G)-------|      craig13@cableinet.co.uk
D)-------|
A)-------|
E)-------|
Comments