Metallica - Eye Of The Beholder Chords & Tabs

 

Eye Of The Beholder Chords & Tabs

Metallica Chords & Tabs

Version: 3 Type: Tab 0 ratings
1 star 2 stars 3 stars 4 stars 5 stars
comments

Eye Of The Beholder Tab

   
Band: Metallica
Song: Eye of the Beholder
Album: ...And Justice For All
Tabbed by: Ben Minegar Paperboy356@hotmail.com


Well here ya' go.  It should be mostly right and the parts that I didn't include should 
be easy to figure out (I haven't had time just yet) listen for the strum patterns, 
no solo either, anyway...

Key:    
.  = palm mute the above note
h = hammer on
p = pull off  (obviously)
/  = slide up or down to the next note
x =  string rake
^ = vibrato on the the below note
* = deaden all strings


Riff A
E|-----------------------------------------|
B|-----------------------------------------|
G|-----------------------------------------|  20x
D|-----------------------------------------|
A|-------------------------------7---------|
E|-0-0-0-0-0-0-0-0-0---0--0--0-0-0---------|
   . . . . . . . . .   .  .  . .


Riff A gets played while it slowly gets louder


Riff  B
|-----------------------------------------------------------|
|-----------------------------------------------------------|
|-----------------------------------------------------------|   4x
|-----------------------------------------------------------|
|-----------------------------------------------------------|
|-0-0-0-0-0-0-0-0-3--3--3-3-3--2-2-2-2-2-2-2-2-2--2--2-2-2--|
  . . . . . . . . .  .  . . .  . . . . . . . . .  .  . .


Drums come in-----^

Riff A 4x

Riff  C:

	#1			              #2
|----------------------|-------|--------------------------------|
|----------------------|-------|--------------------------------|
|--------------------^-|-------|--------------------------------|  1x
|--------------9-9-9-8-|----3x-|---------------8h9p8------------|
|--------------7-7-7-7-|-------|-------------------------7h8p7--|
|-0-0-0--0-0---0-0-0-0-|-------|--0-0-0--0-0--------------------|
  . . .  . .                      . . .  . .



Repeat Riff C 1x  but for #2 play:
|-------------------------------------------------------|
|-------------------------------------------------------|
|-------------------------------------------------------|  
|--------------8h9p8-----------------------2-------2--*-|
|---------------------7h8p7----------------2-------2--*-|
|-0-0-0--0-0-----------------7h8p7--2h3p2--0-------0--*-|
  . . .  . .


(Riff C #2 varies in timing on the verses)                                                        .    .


Riff D (verse):
|--------------------------------------------------------|
|--------------------------------------------------------|
|--------------------------------------------------------|       4x
|-2-2-2-2-2-2-2-2----------------------------------------|  
|-2-2-2-2-2-2-2-2-2--2-2-2--4-4-4-4-4-4-4-4-4--4--4-4-4--|    
|-0-0-0-0-0-0-0-0-3--3-3-3--2-2-2-2-2-2-2-2-2--2--2-2-2--|
  . . . . . . . . .  . .    . . . . . . . . .  .  . . 


Then Riff A 2x:


Then Riff D again...
On the 4th repeat of riff D, Hold the F#5 power chord open (listen to song)


Then in double time, play this: Riff E  (pre-chorus)
|------------------|-------|-------------------------------|
|------------------|-------|-------------------------------|
|----9-9-10-7-7-8--|---5x--|-------------------------------| 1x
|----9-9-10-7-7-8--|-------|--2-2-x-2----2/5--2-2--5-5--5--|
|----7-7-8--5-5-6--|-------|--2-2-x-2----2/5--2-2--5-5--5--|
|------------------|-------|--0-0-x-0----0/3--0-0--3-3--3--|


Cool drum fill...

[ Tab from: http://www.guitartabs.cc/tabs/m/metallica/eye_of_the_beholder_tab_ver_3.html ]
Riff F (some cool triplets and finaly the chorus):

	1#				        #2 (chorus)
|----------------------------------------------|-------------|----|---------|--------|
|----------------------------------------------|-------------|----|---------|--------|
|----------------------------------------------|-------------|----|---------|--------| 2x
|-7-7-7--5-5-5-----7-7-7--5-5-5--4-4-4--5-5-5--|--4-4/5-4-5--|-2x-|--4/---4-|-re. #2-|
|-7-7-7--5-5-5-----7-7-7--5-5-5--4-4-4--5-5-5--|--4-4/5-4-5--|----|--4/---4-|--------|  
|-5-5-5--3-3-3-----5-5-5--3-3-3--2-2-2--3-3-3--|--2-2/3-2-3--|----|--2/---3-|--------|
  . . .  . .       . . .  . . .  . . .  . . .      


Then, play:

|---------------------------------|
|---------------------------------|
|---------------------------------|
|-4/---------7/----------------2--|
|-4/---------7/----------------2--|
|-2/---------5/----------------0--|


The play Riff C with the extra part and go back to the 
verse (Riff D,A)...


Then The prechorus and chorus (Riffs E & F)


Then Riff C but play (listen to the song to see when) this:

Riff  C (only different):
				
|----------------------------|
|----------------------------|
|-------------------------^--|  ??x
|--------------101010---8-9--|
|---------------7-7-7---7-7--|
|-0-0-0--0-0-----------------|
  . . .  . .                
 

Then more variations (not too sure about these)

Solo

Verse: Riff D

Then The prechorus and chorus (Riffs E & F)

Then Riff E during the second solo


Ends with a variation of Riff E #2   listen for that, its easy

Lyrics:

Do You See What I See? 
Truth Is an Offence 
You Silence for Your Confidence 
Do You Hear What I Hear? 
Doors Are Slamming Shut 
Limit Your Imagination, Keep You Where They must 
Do You Feel What I Feel? 
Bittering Distress 
Who Decides What You Express 
Do You Take What I Take? 
Endurance Is the Word 
Moving Back Instead of Forward Seems to Me Absurd 

Doesn't Matter What You See? 
Or into it What You Read 
You Can Do it Your Own Way 
If It's Done Just How I Say 

Independence Limited 
Freedom of Choice 
Choice Is Made for You My Friend 
Freedom of Speech 
Speech Is Words That They Will Bend 
Freedom with Their Exception 

Do You Fear What I Fear? 
Living Properly 
Truths to You Are Lies to Me 
Do You Choose What I Choose? 
More Alternives 
Energy Derives from Both the plus and Negative 
Do You Need What I Need? 
Boundaries Overthrown 
Look Inside to Each His Own 
Do You Trust What I Trust? 
Me, Myself and I 
Penetrate the Smoke Screen I See Through the Selfish lie 

Doesn't Matter What You See 
Or into it What You Read 
You Can Do it Your Own Way 
If It's Done Just How I Say 

Independence Limited 
Freedom of Choice 
Choice Is Mad for You My Friend 
Freedom of Speech 
Speech Is Words That They Will Bend 
Freedom with Their Exception 

Do You Know What I Know? 
Your Money End Your Wealth 
Your Silence Just to Hear Your Self
Do You Want What I Want? 
Desire Not a Thing 
I Hunger after Independence Lengthen Freedom's Ring 

Doesn't Matter What You See 
Or into it What You Read 
You Can Do it Your Own Way 
If It's Done Just How I Say 

Independence Limited 
Freedom of Choice 
Choice Is Mad for You My Friend 
Freedom of Speech 
Speech Is Words That They Will Bend 
Freedom no longer frees you 

Doesn't Matter What You See 
Or into it What You Read 
You Can Do it Your Own Way 
If It's Done Just How I Say 

Comments