Metallica - Eye Of The Beholder Chords & Tabs

 

Metallica Chords & Tabs

Version: 1 Type: Tab 3 ratings
1 star 2 stars 3 stars 4 stars 5 stars
comments

Eye Of The Beholder Tab

   
Metallica - ...And Justice For All - Eye Of The Beholder
Tabbed By: Matt McLean 9-26-02
E-Mail: Ironmatt67@Hotmail.com

            


Play 14 Times....| Play 3 Times..........................................

|----------------|-------------------|-------------------|-----------------|
|----------------|-------------------|-------------------|-----------------|
|----------------|-------------------|-------------------|-----------------|
|--------------9-|-------------------|-------------------|-----------------|
|--------------7-|----2---2---2-2--2-|--5-5-5-5--5-5-5-5-|--2---2---2-2-2--|
|--0---0---0-0-0-|----3---3---3-3--3-|--2-2-2-2--2-2-2-2-|--2---2---2-2-2--|

 P.M..........|   P.M...........|      P.M...........|    P.M........|


...........................................................................|

|------------------|----------------|-------------------|------------------|
|------------------|----------------|-------------------|------------------|
|------------------|----------------|-------------------|------------------|
|------------------|----------------|-------------------|------------------|
|-2-2-2-2--2-2-2-2-|--2---2---2-2-2-|--5-5-5-5--5-5-5-5-|--2---2---2-2-2---|
|-0-0-0-0--0-0-0-0-|--3---3---3-3-3-|--2-2-2-2--2-2-2-2-|--2---2---2-2-2---|

P.M.............|   P.M..........|    P.M............|    P.M.........|


Play 4 Times........................| Play 2 Times..........................
                                             ~~~~                     ~~~~~
|-----------------------------------|---------------------------------------|
|-----------------------------------|---------------------------------------|
|-----------------------------------|---------------------------------------|
|-----------------------------------|---9-9--8-------------------9-9--8-----|
|---7---------------7---7-----------|---7-7--7------7------------7-7--7-----|
|-0-0-0---0---0---0-0-0-0-0--0---0--|-------------0-0-0---0---0-------------|

 P.M................................|           P.M...........|



................................................................|
                         ~~~~~
|-----------------------------|---------------------------------|
|-----------------------------|---------------------------------|
|-----------------------------|---------------------------------|
|----------------9--9----8----|--------------8-9-8--------------|
|----------------7--7----7----|----------------^-------7-8-7----|
|--0-0-0-0-0-0----------------|-0-0-0-0-0-0---------0----^----0-|
                                             H   P     H   P
P.M...........|                P.M.........|


Play 1 Time...........................................|

|---------------------------------------------------------------|
|---------------------------------------------------------------|
|---------------------------------------------------------------|
|----8-9-8---------------------------------2---------2----------|
|------^------7-8-7------------------------2---------2----------|
|----------0----^---0---6-7-6--0--2-3-2----0---------0----------|
     H   P    H   P     H ^ P     H ^ P


Play 4 Times...............................................|

|---------------------------------------------------------------|
|---------------------------------------------------------------|
|-------------------------4-------------------------------3-----|
|-------------------------5-------------------------------4-----|
|-------------------------5-------------------------------4-----|
|-0-0-0-0-0-0-0-3--3--3-3-3----2-2-2-2-2--2-2-2-2--2--2-2-2-----|
 
P.M.....................|     P.M.......................|


Play 1 Time........................................................|

|------------------------------------------------------------------------|
|------------------------------------------------------------------------|
|------------------------------------------------------------------------|
|------------------------------------------------------------------------|
|------------------------------7----------------------------------7------|
|-0-0-0-0-0-0-0-0-0---0---0-0--0---0-0-0-0-0-0-0-0-0---0---0-0-0--0------|

P.M.........................|     P.M..........................|


Play 4 Times....................................................|
                                                                Let Ring
|------------------------------------------------------------------------|
|------------------------------------------------------------------------|
|--------------------------------4------------------------------3--------|
|--------------------------------5------------------------------4--------|
|--------------------------------5------------------------------4--------|
|-0-0-0-0-0-0-0-0-0--0-3--3--3-3-3---2-2-2-2-2--2-2-2-2--2--2-2-2--------|

P.M............................|    P.M.......................|


Play 1 Time....................................................|

|-------------------------------------------------------------------------|
|-------------------------------------------------------------------------|
|-----------9---9---10--7---7----8-----9---9---10--7---7----8-------------|
|-----------9---9---10--7---7----8-----9---9---10--7---7----8-------------|
|-----------7---7---8---5---5----6-----7---7---8---5---5----6-------------|
|-3-2-----0---0---0---0---0----------0---0---0---0---0--------------------|
          ^   ^   ^   ^   ^          ^   ^   ^   ^   ^
P.M..|   P.M P.M P.M P.M P.M        P.M P.M P.M P.M P.M


Play 3 Times....................| Play 1 Time..........................................|

|-------------------------------|------------------------------------------------------|
|-------------------------------|------------------------------------------------------|
|---9----9----10-----7---7---8--|------------------------------------------------------|
|---9----9----10-----7---7---8--|---9------------9---4-5----------2---4-5----------5---|
|---7----7----8------5---5---6--|---7------------7---4-5----------2---4-5--5--5--5-5---|
|-0-7--0-7--0-8--0---5-0-5---6--|---0---0--0--0--0---2-3--0--0--0-0---2-3--3--3--3-3---|
  ^    ^    ^    ^     ^                             sl               sl
 P.M  P.M  P.M  P.M   P.M              P.M.....|         P.M.....|        P.M.....|


Play 1 Time.................................|   Play 5 Times....|

|--------------------------------------------|-----------------------------------------|
|--------------------------------------------|-----------------------------------------|
|--------------------------------------------|--3-------4-3----------------------------|
|--------------------------------------------|--4-------5-4----------------------------|
|--8-8-8--5-5-5---7-7-7--5-5-5--4-4-4--5-5-5-|--4-------5-4----------------------------|
|--6-6-6--3-3-3---5-5-5--3-3-3--2-2-2--3-3-3-|--2----3--3-2----12----------------------|
                                                        sl      sl
P.M..........|    P.M.......................|




Play 1 Time....................................................................|
                           ~~~~~                      ~~~~~                        ~~~~~
|--------------------------------------------------------------------------------------------|
|--------------------------------------------------------------------------------------------|
|--------------------------------------------------------------------------------------------|
|--------------------9-9--8----------------------9-9--8-----------------------9-9--8---------|
|----0---------------7-7--7--------7-------------7-7--7---------7-------------7-7--7---------|
|--0-7-0--0--0--0----------------0-0-0--0--0--0---------------0-0-0--0--0--0-----------------|

P.M.............|                P.M...........|              P.M...........|



Play 1 Time..................................................|

|--------------------------------------------------------------------|
|--------------------------------------------------------------------|
|--------------------------------------------------------------------|
|-----------------8-9-8---------------------------------2-----2------|
|----7--------------^-----7-8-7-------------------------2-----2------|
|--0-0-0--0--0--0------0----^----0--6-7-6--0--2-3-2--0--0-----0------|
                  H   P   H   P     H ^ P     H ^ P
P.M.............|               



|--------------------------------------------------------------------|
|--------------------------------------------------------------------|
|--------------------------------------------------------------------|
|--9-----------10-10---8--9------------9-9--8--9--------10-10--8--9--|
|--7------------7--7---7--7------------7-7--7--7---------7--7--7--7--|
|--0---0--0--0--0------0-----0-0--0-0--0----------0-0-0--0-----0-----|

    P.M......|             P.M......|            P.M...|     



|--------------------------------------------------------------------|
|--------------------------------------------------------------------|
|--------------------------------------------------------------------|
|----------9-9--8--9--------10-10-8--9-----------------5----9--------|
|----------7-7--7--7---------7--7-7--7---------------5---5--7--------|
|-0-0-0-0--0----------0-0-0--0----0------0-0--0-0--7-----------------|

P.M.....|           P.M...|            P.M......|


|--------------------------------------------------------------------|
|--------------------------------------------------------------------|
|--------------------------------------------------------------------|
|--------10-10-8--9---------------5----------------------------------|
|---------7--7-7--7-------------5---5-9----------10-10-8--9----------|
|--0-0-0--0----0-----0-0-0-0--7-------7--7--7--7--7--7-7--7----------|

P.M....|           P.M.....|           P.M.....|



[ Tab from: http://www.guitartabs.cc/tabs/m/metallica/eye_of_the_beholder_tab.html ]
|-----------------------------------------------------------------------|
|-----------------------------------------------------------------------|
|-----------------------------------------------------------------------|
|---------------5---5----------------------------------------------5----|
|-------------6---6---6--9-----------10-10--8--9-----------------6---5--|
|--7--7--7--7------------7---7--7--7--7--7--7--7---7--7--7--7--7--------|

P.M......|                 P.M.....|             P.M...........|





(Two Guitars)
|--------------------8-----------------------------------------------------|
|--10---8-10-8--------------10----8-10-8--------------10----8-10-8---------|
|--10---9-10-9-10----12-----10----9-10-9--10----9-----10----9-10-9---10----|
|--------------12-------------------------12----10-------------------12----|
|--------------------------------------------------------------------------|
|--------------------------------------------------------------------------|
         H  P                          H  P                      H  P
 




|--8--------------------------------------------------------------------------------|
|-----------------------------------------------------------------------------------|
|--12----10---9------7--------------------------------------------------------------|
|--------12---10-----7----------------8--8--8---6----7-----------------------3------|
|--------------------5----5---5---5---5--5--5---5----5---5--5--5--5------3-------3--|
|---------------------------------------------------------------------5-------------|

                           P.M.......|                     P.M.......|





|--------------------8---------------------------------------------------------|
|--10---8-10-8------------------10----8-10-8--------------10----8-10-8---------|
|--10---9-10-9-10----12---------10----9-10-9--10----9-----10----9-10-9---10----|
|--------------12-----------------------------12----10-------------------12----|
|------------------------------------------------------------------------------|
|------------------------------------------------------------------------------|
         H  P                          H  P                      H  P




            H  P              H  P                H  P        H P   H P
|--------------------------------------------------------------------------|
|--------------------5-------------------------------------5---------------|
|------5---4-5--4--------5---4-5--4-----------5--4-5--4-------5-4---5-4----|
|---7-------------7--------------------7---5-------------7--------7------5-|
|--------------------------------------------------------------------------|
|--------------------------------------------------------------------------|





              H  P               H  P
|-----------------------------------------|
|----------------------5------------------|
|--------5---4-5--4---------5---4-5--4----|
|---7---------------7---------------------|
|-----------------------------------------|
|-----------------------------------------|






|------------------------------------------------------------------------------|
|------------------------------------------------------------------------------|
|------------------------------------------------------------------------------|
|---7----------------------------------------------3-----3---------------------|
|---7--------------8-8-8-6---7------------------3-----3-----3--7----------8----|
|---5---5--5----5--5-----5------5--5--5--5---5-----------------5--5--5--5-5----|

       P.M......|              P.M............|                  P.M.....|





                     H P H P                   H  P                   H  P
|---------------------------------------------------------8----------------------|
|-------------------------------5--------10---8-10-8-------------10--8-10-8------|
|--------------------5-4-5-4------5------10---9-10-9--10--12-----10--9-10-9--10--|
|--------------7--5----------7---------12-------------12---------------------12--|
|-8-8--6---7---------------------------------------------------------------------|
|------5-------------------------------------------------------------------------|





              H  P
|------------------------8---------------------------------------|
|-------10---8-10-8----------------------------------------------|
|----9--10---9-10-9--10--12--10---9------------------------------|
|---10---------------12------12--10-----------------------3------|
|------------------------------------------------------3-----3---|
|---------------------------------------5--5--5--5--5------------|

                                       P.M........|




           H  P                   H  P                   H  P sl        P
|---------------------8---------------------------------------------------------|
|-----10--8-10-8------------10---8-10-8------------10---8-10-8--6---5--6-5------|
|--10-10--9-10-9--10--12----10---9-10-9---10---9---10---9-10-9--7---5--5-4--7---|
|--12-------------12----------------------12---10---------------------------7---|
|-------------------------------------------------------------------------------|
|-------------------------------------------------------------------------------|







    P
|-----------------------------------------------------------------------|
|--6-5------------------------------------------------------------------|
|--5-4--5---------------------------------------------------------------|
|-------5----7------------8-8-8---6---7---------------------3-----3-----|
|------------5--5--5--5---5-------5------5--5--5---5-----3-----3-----3--|
|-----------------------------------------------------5-----------------|

              P.M......|                P.M.........|





|----------------------------------------------------------------------------|
|----------------------------------------------------------------------------|
|----------------------------------------------------------------------------|
|-------------------------------------------------------------------7-7-7----|
|---7-7-7---8-8-8---6-6-6---7-7-7---9-9-9---7-7-7---6-6-6---7-7-7---5-5-5----|
|---5-5-5---6-6-6---4-4-4---5-5-5---7-7-7---5-5-5---4-4-4---5-5-5------------|

P.M......................................................................|





|-----------------------------------------------------|
|-----------------------------------------------------|
|--------------------------7--7--5--5--4--4-----------|
|--5-5-5---4-4-4---5-5-5---7--7--5--5--4--4---5---5---|
|--3-3-3---2-2-2---3-3-3---5--5--3--3--2--2---5---5---|
|---------------------------------------------3---3---|

P.M.....................|       P.M................|





                                        The Solo



|-------------------------------------------------------------(22)--(22)--22------|
|---------------------------------------------------------------------------------|
|---2-----4(4)/-----9(9)/-----11(11)/-----22----22(22)----------------------------|
|---------------------------------------------------------------------------------|
|---------------------------------------------------------------------------------|
|---------------------------------------------------------------------------------|



     ~~~~~~~   H  P               H  P            H  P         H  P
|--22--------19-22-19--18---18--18-19-18/15--15-15-18-15/14--14-15-14--14---------|
|--------------------------------------------------------------------17-----------|
|---------------------------------------------------------------------------------|
|---------------------------------------------------------------------------------|
|---------------------------------------------------------------------------------|
|---------------------------------------------------------------------------------|



               H  P              P          ~~~~   P            P
|---------------------------------------------------------------------------------|
|-17-15-14---14-15-14----------15-14-------------15-14--------15-14---------------|
|---------16---------16-15--16--------16-15-16--------16-15-16-----15-16-15-------|
|---------------------------------------------------------------------------------|
|---------------------------------------------------------------------------------|
|---------------------------------------------------------------------------------|




      P                     H  P                  T P  P    T P  P    T P  P
|-------------------14-15-14-15-14--14-15-18--18-19-18-15--19-18-15--19-18-15-----|
|---15-14---14-15-17--------------17------------------------------------------19--|
|-x------16-------------------------------------------------------------------19--|
|---------------------------------------------------------------------------------|
|---------------------------------------------------------------------------------|
|---------------------------------------------------------------------------------|






|---------------------------------------------------------------------|
|---------------------------------------------------------------------|
|------9-------9---7--10-----7-----7----8-----------------------------|
|------9-------9---7--10-----7-----7----8---2------------------2------|
|------7-------7---5---8-----5-----5----6---2------------------2------|
|--0---7---0---7---5---8--0--5--0--5----6---0------0---0---0---0------|
                sl
  P.M     P.M            P.M   P.M                P.M.......|


(Repeat 2 Times)

|------------------------------------------|
|------------------------------------------|
|------9-------9---10-----7-----7------8---|
|------9-------9---10-----7-----7------8---|
|------7-------7----8-----5-----5------6---|
|--0-------0------0----0-----0-------------|

  P.M     P.M    P.M  P.M   P.M



Outro:

|-------------------------------------------------------------|
|-------------------------------------------------------------|
|-------------------------------------------------------------|
|--2-----------2-----4--5--------------------------------2----|
|--2--2--2--2--2-----4--5--2--2--2--2--2--2--2--2--2--2--2----|
|--0--0--0--0--0-----2--3--0--0--0--0--0--0--0--0--0--0--0----|
                      sl
     P.M.....|            P.M..........................|








            
Comments