Metallica - Eye Of The Beholder Chords & Tabs

 

Eye Of The Beholder Chords & Tabs

Metallica Chords & Tabs

Version: 3 Type: Bass Tab 0 ratings
1 star 2 stars 3 stars 4 stars 5 stars
comments

Eye Of The Beholder Bass Tab

   
Tabbed By: Jake.
Email: rebel_bunnies666@hotmail.com

Hey guys. this is my first tab. I've only been playing for about 8 months now, This is
one of the first Metallica songs I learned when I was Starting out. It's waaaaaaaay to
easy and fun to play. If you don't think I have tabbed it right, message me. 

Legend:
| /  slide up
| \  slide down
| h  hammer-on
| p  pull-off
| ~  vibrato
| +  harmonic
| x  Mute note
=============================================================================

Intro 1:

Note: Bass doesn't exactly follow to the same rhythm as the guitar, listen closely and
try to pick out the bass. It's hard because Metallica kind of turned down the bass on
this album.

G|----------|-------------------------------------------------------------|
D|----------|-------------------------------------------------------------|
A|----------|------------22222222------55555555------22222222-------------|
E|-00000000-|-00000000----------------------------------------------------|

Intro 2:
Ride Open E string to the rhythm of the guitar
E|-00000000000000000000......---------------------------------------------|

Then Play this Riff before the verse rolls in:
G|-----3h4p3--------------------------------------------------------------|
D|---------------2h3p2----------------------------------------------------|
A|-------------------------1h2p1------------------------------------------|
E|-----------------------------------2h3p2---------0----------------------|

Verse: 

G|-----------------------------------|------------------------------------|
D|-----------------------------------|------------------------------------|
A|-----------------------------------|------------------------------------|
E|-0000000---33333---2222222---22222-|--0000000---33333---2222222---22222-|


Pre Chorus:

Time the riff comes in: 1:46
[ Tab from: http://www.guitartabs.cc/tabs/m/metallica/eye_of_the_beholder_btab_ver_3.html ]
G|----------------------------------|-------------------------------------|
D|----------------------------------|-------------------------------------|
A|---X--7-7--8-----X--5-5--6--------|---------X--7-7--8-----X--5-5--6-----|
E|----------------------------------|-------------------------------------|

Next riff after this comes in at: 1:58

G|-------------|------------|------------|--------------------------------|
D|-------------|------------|------------|--------------------------------|
A|-------------|------------|------------|---111--------111---------------|
E|--0---000----|--3---333---|--3---333---|--------333--------333----------|

Next Riff played at: 2:02
                               Vocals
G|-------------------------------|----------------------------------------|
D|-------------------------------|----------------------------------------|
A|-------------------------------|----------------------------------------|
E|--222--333------2--3--2--------|------2---3-2--3---------2---3-2--3-----|

Next Riff played at: 2: 11

G|-----------------------------------------|------------------------------|
D|-----------------------------------------|------------------------------|
A|-----------------------------------------|------------------------------|
E|--2--2--3--3---2--3--2--3----2---3--2--3-|-2--2--3--3---2-3-2-3--2-3-2-3|

Riff Continued:

G|------------------------------------------------------------------------|
D|------------------------------------------------------------------------|
A|------------------------------------------------------------------------|
E|--2---3--2--3-----------2------------5----------0---00------------------|

Add 3rd Intro 2:

G|---------------|----------------|-----------|---------------|-----------|
D|---------------|--------5-------|-----------|--------5------|-----------|
A|---------------|-----5-----5----|-----------|-----5-----5---|-----------|
E|-0.............|---7------------|--0........|---7-----------|-7.........|

After all this it pretty much restarts itself, I filled in some of the timing for you
but, if you have any kind of talent you will be able to find out where everything goes
in a matter of minutes.

Later, Jake.
Comments