Metallica - Enter Sandman Chords & Tabs

 

Enter Sandman Chords & Tabs

Metallica Chords & Tabs

Version: 9 Type: Tab 4 ratings
1 star 2 stars 3 stars 4 stars 5 stars
comments

Enter Sandman Tab

   
Tab Legend:

  ~: Vibrato
  >: Slide
  h: Hammer-on
  p: Pull-off
  ": Semitone Bend
  ^: Full Bend
[ ]: Heavy Palm-mute
( ): Palm-mute
  r: Release Bend
Intro
e---------
B---------
G--------- X12
D----5----
A---7----7
E-0---6-5-

e-------------------------------
B-------------------------------
G-------------------------------
D-2-----------------------------
A-2[2-2-2-2-2]2>7-[2-2-2-2-2]2>7
E-2[0-0-0-0-0]0---[0-0-0-0-0]0--
                 [------X3------]
e----------------
B----------------
G---------------- X4
D---------3------
A-[2-2-2]-3--2>7-
E-[0-0-0]-1--0--6

e----------------
B----------------
G---------------- X8
D-------3--------
A-[2-2]-3--2>7---
E-[0-0]-1--0--6-5

Main Riff
e---------------------------------------------------
B---------------------------------------------------
G--------------------------------------------------- X2
D-2----------2----------2---------5--[--5---4-5-4-2]
A-2--2>7-----2--2>7-----2--2>7----5--[--5---4-5-4-2]
E-0--0--6-5--0--0--6-5--0--0--6-5-3--[0-3-0-2-3-2-0]

Verse
e-------------------------------------------------------------------
B-------------------------------------------------------------------
G-------------------------------------------------------------------    
D-2-----------------------------------------------5--[--5---4-5-4-2]
A-2-[2-2-2-2-2-2]-3-[2-2-2-2-2-2]-3-[2-2-2-2-2-2]-5--[--5---4-5-4-2]
E-0-[0-0-0-0-0-0]-1-[0-0-0-0-0-0]-1-[0-0-0-0-0-0]-3--[0-3-0-2-3-2-0]

e-------------------------------------------------------------------
B-------------------------------------------------------------------
G------------------------------------------------------------------      
D-2-----------------------------------------------5--[--5---4-5-4-2]
A-2-[2-2-2-2-2-2]-3-[2-2-2-2-2-2]-3-[2-2-2-2-2-2]-5--[--5---4-5-4-2]
E-0-[0-0-0-0-0-0]-1-[0-0-0-0-0-0]-1-[0-0-0-0-0-0]-3--[0-3-0-2-3-2-0]

Pre-Chorus
e---------
B---------
G-----2--- X4
D-4--4----
A------3-2
E--2------

Chorus
e---------------------------------------
B---------------------------------------
G-----5-5-4--2---------------5-5-4--2---
D-4-4-5-5-4--2--------2--4-4-5-5-4--2---
A-4-4-3-3-2--0-5-2-5-2-2-4-4-3-3-2--2---
E-2-2---------4----------2-2--------0---
 [----X3---]

Main Riff
e---------------------------------------------------
B---------------------------------------------------
G--------------------------------------------------- X2
D-2----------2----------2---------5--[--5---4-5-4-2]
A-2--2>7-----2--2>7-----2--2>7----5--[--5---4-5-4-2]
E-0--0--6-5--0--0--6-5--0--0--6-5-3--[0-3-0-2-3-2-0]

Verse
e-------------------------------------------------------------------
B-------------------------------------------------------------------
G------------------------------------------------------------------      
D-2-----------------------------------------------5--[--5---4-5-4-2]
A-2-[2-2-2-2-2-2]-3-[2-2-2-2-2-2]-3-[2-2-2-2-2-2]-5--[--5---4-5-4-2]
E-0-[0-0-0-0-0-0]-1-[0-0-0-0-0-0]-1-[0-0-0-0-0-0]-3--[0-3-0-2-3-2-0]

e-------------------------------------------------------------------
B-------------------------------------------------------------------
G------------------------------------------------------------------      
D-2-----------------------------------------------5--[--5---4-5-4-2]
A-2-[2-2-2-2-2-2]-3-[2-2-2-2-2-2]-3-[2-2-2-2-2-2]-5--[--5---4-5-4-2]
E-0-[0-0-0-0-0-0]-1-[0-0-0-0-0-0]-1-[0-0-0-0-0-0]-3--[0-3-0-2-3-2-0]

Pre-Chorus
e---------
B---------
G-----2--- X4
D-4--4----
A------3-2
E--2------

Chorus
e---------------------------------------
B---------------------------------------
G-----5-5-4--2---------------5-5-4--2---
D-4-4-5-5-4--2--------2--4-4-5-5-4--2---
A-4-4-3-3-2--0-5-2-5-2-2-4-4-3-3-2--2---
E-2-2---------4----------2-2--------0---
 [----X3---]

Solo
e-------------------------------------------------------------------------------
B-15-15-15-12--------12------------12-12--15h17-15h17---------------------------
G------------14^14-15---14^16-16r16-----14-----------12--14-14-14-14-12-12-12-12
D-------------------------------------------------------------------------------
A-------------------------------------------------------------------------------
E-------------------------------------------------------------------------------
[ Tab from: http://www.guitartabs.cc/tabs/m/metallica/enter_sandman_tab_ver_9.html ]
e----------------------------------------------------------12-12-12--------12-12-12--------12-12-12--------12-12-12
B-14-14-14-14-12-12-12-----------------------------15"17r17--------15"17r17--------15"17r17--------15"17r17--------
G---------------------14p12----------------------------------------------------------------------------------------
D--------------------------14-14p12--------------------------------------------------------------------------------
A----------------------------------14-14p12-10---------------------------------------------------------------------
E---------------------------------------------12>4-----------------------------------------------------------------

e-------12-12-12h15p12-12h15p12-12-15-12-12-14-14-17p14--17p14--17p14-19p15--19p15--19p15-21p17--21p17--21p17--22-24--24
B-15-17------------------------------------------------15-----15-----------17-----17-----------17-----17-----17---------
G-----------------------------------------------------------------------------------------------------------------------
D-----------------------------------------------------------------------------------------------------------------------
A-----------------------------------------------------------------------------------------------------------------------
E-----------------------------------------------------------------------------------------------------------------------

e------------------------------------------------------------------------------------------------------------------------
B-9h10-10p9h10-10-9-9h10---------10-10--10-8-7--7>8>7-7------------------------------------------------------------------
G-9h11-11p9h11-11-9-9h11-7------7--------------9-----9-9-7-7-9p7-------------------16-18-14---14-16-18-14--14-16-18--14--
D-------------------------9--7-9--------------------------9-----9p7-7-9-7------------------16------------16------------16
A------------------------------------------------------------------9-----9-8-7-------------------------------------------
E-----------------------------------------------------------------------------10--7--------------------------------------

e-----------------------------------------------------------------21-17--21-17--21-17--21-17--21-17--22-24-24-24-22-24-24-24
B-----------17--------17---------17------------------------------------17-----17-----17-----17-----17-----------------------
G---14-16-18--16-18-18--16-18-18---16-18-18-18-18-18-18-18-18-18------------------------------------------------------------
D-16------------------------------------------------------------------------------------------------------------------------
A---------------------------------------------------------------------------------------------------------------------------
E---------------------------------------------------------------------------------------------------------------------------

e-22--24---24-----------------------------------------------------------------------------
B-----------------------------------------------------------------------------------------
G---------------10-8-7--------------------------------------------------------------------
D---------------------9-9-7------------5--------------------------------------------------
A--------------------------9-9-7-5-7-9--7--7-7--5-7-4--4-0-2-2-2-2-2-2-2-2-2-2-2-2-2-2-2-2
E-----------------------------------------------------------------------------------------

Verse
e---------
B---------
G--------- X8
D----5----
A---7----7
E-0---6-5-

e--------------
B--------------
G-------------- X4
D--------------
A-[2-2-2-2-2-2]
E-[0-0-0-0-0-0]

Chorus
e------------------------------------------------------------
B------------------------------------------------------------
G-----5-5-4--2---------------5-5-4--2-----------------5-5-4-2
D-4-4-5-5-4--2--------2--4-4-5-5-4--2----------2--4-4-5-5-4-2
A-4-4-3-3-2--0-5-2-5-2-2-4-4-3-3-2--0-5-2-5-2-2-2-4-4-3-3-2-2
E-2-2---------4----------2-2---------4------------2-2-------0
 [----X3---]            [----X3---]

Outro
e----------
B----------
G---------- X7
D-2--------
A-2--2>7---
E-0--0--6-5

e-----------------------
B-----------------------
G-----------------------
D-5--[--5---4-5-4]-2----
A-5--[--5---4-5-4]-2----
E-3--[0-3-0-2-3-2]-0----
Comments