Metallica - Enter Sandman Chords & Tabs

 

Enter Sandman Chords & Tabs

Metallica Chords & Tabs

Version: 7 Type: Tab 2 ratings
1 star 2 stars 3 stars 4 stars 5 stars
comments

Enter Sandman Tab

Tabed by: Lord_Frame
Song Title: Enter Sandman
Artist: Metallica

Fb    ¡V Full bend
Fb(r) ¡V Full bend and release
/     - Slide 
^     - Pull of/Hammer on




Play this 6 times:

E|----------------------------------------------------------|
B|----------------------------------------------------------|
G|----------------------------------------------------------|
D|-----------5-----------------------5----------------------|
A|-------7-------------7---------7--------------7-----------|
E|---0----------6---5--------0-----------6---5--------------|

Play this 2 times:

E|----------------------------------------------------------|
B|----------------------------------------------------------|
G|----------------------------------------------------------|
D|----------------------------------------------------------|
A|-2-------------------/7-----2-----------------------/7----|
E|-0--0--0--0--0--0--0--------0--0--0--0--0--0--0--0--------|
 
Play this 2 times:

E|----------------------------------------------------------|
B|----------------------------------------------------------|
G|----------------------------------------------------------|
D|----------------------------------------------------------|
A|--------/7-------------3-------------/7--------------3----|
E|--0--0-----6--0--0--0--1-----0--0--------6--0--0--0--1----|

Play this 4 times:

E|-----------------------------------------------------------|
B|-----------------------------------------------------------|
G|-----------------------------------------------------------|
D|-----------------------------------------------------------|
A|---------/7-------------3-------------/7--------------3----|
E|-0--0-------6--5--0--0--1-----0--0--------6--5--0--0--1----|







Riff 1 play 2 times:

		
E|------------------------|----------------------------------|
B|------------------------|----------------------------------|
G|------------------------|----------------------------------|
D|-2--2-------------------|----------------------------------|
A|-2--2----/7-------------|-----5------4-------4---5---4-----|
E|-0--0--------6---5---0--|-----3---0--2---0---2---3---2-----|




Riff 2 play 2 times:

		
E|------------------------|----------------------------------|
B|------------------------|----------------------------------|
G|------------------------|----------------------------------|
D|-2----------------------|----------------------------------|
A|-2--2--2--2--2--2--2--3-|-----5------4-------4---5---4-----|
E|-0--0--0--0--0--0--0--1-|-----3---0--2---0---2---3---2-----|


Riff 3 play 2 times:


E|-------------------------------------------------------|
B|-------------------------------------------------------|
G|----------2-------------------------2------------------|
D|------4----------------4--------4----------------4-----|
A|-------------3---2---------------------3---2-----------|
E|--2-------------------------2--------------------------|

Riff 4 play once:

|------3x----------|

E|------------------|-------------------------------------------|
B|------------------|-------------------------------------------|
G|------------------|-------------------------------------------|
D|---------------4--|---2---------------------------------------|
A|---4----4--3---2--|---2---------------------------------------|
E|---2--------------|---0---------------------------------------|


E|------------------|-------------------------------------------------|
B|------------------|-------------------------------------------------|
G|------------------|-------------------------------------------------|
D|---------------4--|---2---------------------------------------------|
A|---4----4--3---2--|---2--------5-----4-----4--5--4------------------|
E|---2--------------|---0--------3--0--2--0--2--3--2--0---------------|


Then the songs repeats it self from Riff 1 till Riff 4.
The the solo begins. While playing the solo, the rytmm guitar repeats Riff 1 till Riff 4 again. Here¡¦s the solo. It¡¦s hard to master but not impossible. Kirk is using wah-wah in this one but you shuold better not use it yourself. First master the solo and then try to put some wah-wah in it. Goodluck!!



Solo:

|---------------------------------------------------------------------|
|-15---15---15---12--------12------------12--12-------15fb-15bfb------|
|---------------------14fb--------14fb-----------14-------------------|
|---------------------------------------------------------------------|
|---------------------------------------------------------------------|
|---------------------------------------------------------------------|

|---------------------------------------------------------------------|
|---------------------------------------------------------------------|
|-12/14-14-14/12-12-12/14-14-14/12-12-14^12---------------------------|
|-------------------------------------------14¡X14^12------------------|
|----------------------------------------------------14-14^12/10------|
|-----------------------------------------------------------------12--|   


|-------12-12-12-------12-12-12-----------12-12-12-----------12-12-12-|
|-15fb---------- 15fb--------------15fb-----------------15fb----------|
|---------------------------------------------------------------------|
|---------------------------------------------------------------------|
|---------------------------------------------------------------------|
|---------------------------------------------------------------------|

|-----------12-12-12^15^12-15^12^15-12^15^12-12-15-12-12-14-14--------|
|------15fb-----------------------------------------------------------|
|---------------------------------------------------------------------|
|---------------------------------------------------------------------|
|---------------------------------------------------------------------|
|---------------------------------------------------------------------|
[ Tab from: http://www.guitartabs.cc/tabs/m/metallica/enter_sandman_tab_ver_7.html ]
|-17^14---17^14---17^14-19^15---19^15---19^15-21^17---21^17----22fb---|
|-------14------14------------17------17------------17------17--------|
|---------------------------------------------------------------------|
|---------------------------------------------------------------------|
|---------------------------------------------------------------------|
|---------------------------------------------------------------------|

|---------------------------------------------------------------------|
|-9fb--9fb¡X-9fb¡X-9fb--------------10---10-8-7---7/8/7-----------------|
|-9fb--9fb--9fb--9fb--7---------7-------------9-------9---9-7-------7-|
|-----------------------9¡X-7^9----------------------------------9-----|
|---------------------------------------------------------------------|
|---------------------------------------------------------------------|

|---------------------------------------------------------------------|
|---------------------------------------------------------------------|
|-9p^7-------------------------16fb-14----14-16fb-14----14-16fb-14----|
|-----9^7---7-9-7---------------------16-------------16------------16-|
|---------9-------9-8-7-----------------------------------------------|
|-----------------------10-7/-----------------------------------------|





                                                          Tremelo
                                                         „²------„³
|---------------------------------------------------------------------|
|---------------------------17-----17-------17------------------------|
|-14-16fb-14--------14-16fb---16fb----16fb-------16fb(r)--------------|
|-------------16-16---------------------------------------------------|
|---------------------------------------------------------------------|
|---------------------------------------------------------------------|

|-21p17---21p17---21p17---21p17---21p17---21p17---22fb-22-22fb-22-22fb|
|------17------17------17------17------17------17---------------------|
|---------------------------------------------------------------------|
|---------------------------------------------------------------------|
|---------------------------------------------------------------------|
|---------------------------------------------------------------------|

|---------------------------------------------------------------------|
|-10^8^7--------------------------------------------------------------|
|---------9p7---------------------------------------------------------|
|-------------9p7-5--7fb----5~~---------------------------------------|
|-------------------------------7~~~~~~~~~-5^7-4-----0--2~~~~~~~~~----|
|---------------------------------------------------------------------|

End of solo. I hope you learn the solo, it¡¦s worth playing.


Play this 4 times:

E|----------------------------------------------------------|
B|----------------------------------------------------------|
G|----------------------------------------------------------|
D|-----------5-----------------------5----------------------|
A|-------7-------------7---------7--------------7-----------|
E|---0----------6---5--------0-----------6---5--------------|


     Play 6 times
„²----------------------„³

E|--------------------------|-----------------------------------------|
B|--------------------------|-----------------------------------------|
G|----------2---------------|-----------------------------------------|
D|------4----------------4--|-----------------------------------------|
A|-------------3---2--------|--2-2-2-2-2-2-2-2-2-2-2-2-2-2-2-2--------|
E|--2-----------------------|--0-0-0-0-0-0-0-0-0-0-0-0-0-0-0-0--------|







|------3x----------|

E|------------------|-------------------------------------------|
B|------------------|-------------------------------------------|
G|------------------|-------------------------------------------|
D|---------------4--|---2---------------------------------------|
A|---4----4--3---2--|---2---------------------------------------|
E|---2--------------|---0---------------------------------------|


E|------------------|-------------------------------------------------|
B|------------------|-------------------------------------------------|
G|------------------|-------------------------------------------------|
D|---------------4--|---2---------------------------------------------|
A|---4----4--3---2--|---2--------5-----4-----4--5--4------------------|
E|---2--------------|---0--------3--0--2--0--2--3--2--0---------------|

|------3x----------|

E|------------------|-------------------------------------------|
B|------------------|-------------------------------------------|
G|------------------|-------------------------------------------|
D|---------------4--|---2---------------------------------------|
A|---4----4--3---2--|---2---------------------------------------|
E|---2--------------|---0---------------------------------------|


E|------------------|-------------------------------------------------|
B|------------------|-------------------------------------------------|
G|------------------|-------------------------------------------------|
D|---------------4--|---2---------------------------------------------|
A|---4----4--3---2--|---2--------5-----4-----4--5--4------------------|
E|---2--------------|---0--------3--0--2--0--2--3--2--0---------------|


		
E|------------------------|----------------------------------|
B|------------------------|----------------------------------|
G|------------------------|----------------------------------|
D|-2----------------------|----------------------------------|
A|-2--2--2--2--2--2--2--3-|-----5------4-------4---5---4-----|
E|-0--0--0--0--0--0--0--1-|-----3---0--2---0---2---3---2-----|



Then you play this outro while the volume is getting lower and the song is gonna end:

E|-----------------------------------------------------------|
B|-----------------------------------------------------------|
G|-----------------------------------------------------------|
D|-----------------------------------------------------------|
A|---------/7-------------3-------------/7--------------3----|
E|-0--0-------6--5--0--0--1-----0--0--------6--5--0--0--1----|

Comments