Metallica - Enter Sandman Chords & Tabs

 

Enter Sandman Chords & Tabs

Metallica Chords & Tabs

Version: 4 Type: Tab 2 ratings
1 star 2 stars 3 stars 4 stars 5 stars
comments

Enter Sandman Tab

   
#----------------------------------PLEASE NOTE---------------------------------#
#This file is the author's own work and represents their interpretation of the #
#song. You may only use this file for private study, scholarship, or research. #
#------------------------------------------------------------------------------##

Title: 		Enter Sandman
Band: 		Metallica
Album:		Black Album
Words:		James Hetfield, Lars Ulrich and Kirk Hammett
Music:		James Hetfield, Lars Ulrich and Kirk Hammett
Tempo:		-------
Transcribed By:	"DaMatrix"
My Email:	robertleeuwestein@yahoo.com 
Original site:	http://members.tripod.co.uk/robertleeuwestein/
		(check for more quality tabs, and scanned tabs)
Last edit:	08-Nov-2001
Parts:		INTRO, MAIN PART, CODA, SOLO, LAST PART, TAB EXPLANATION
Missing:	Nothing
Other tabs 	
made by me:	Metallica - Orion
		Metallica - The Unforgiven

This is a very popular song (1st in the Rocktober charts top 100).
If Metallica is playing live then they will play this song, 
It isn't a hard song. The solo may be hard for beginners but keep 
training and it will work.

If you want to add this tab on your site then please leave the tab as it is. If you are not sure
that you have the originial tab mail me. Also, if somebody is using my tab then please mail me.
You can always get the newest verion of the tab at my website.

If you see any white lines between the guitar lines, then make sure you resolution is 
1024 x 768 or greater and that you are using Notepad.

Well, let's play this song.


INTRO*************************************************************


 4/4
  Gtr I
  E   +E  E E E Q  E E   +E  E E E Q  E E   +E  E E E Q  E E
|---|------------------|------------------|------------------|
|---|------------------|------------------|------------------|
|---|------------------|------------------|------------------|
|---|-------5----------|-------5----------|-------5----------|
|---|-----7--------7---|-----7--------7---|-----7--------7---|
|-0-|-(0)-----6-5----0-|-(0)-----6-5----0-|-(0)-----6-5----0-|


  Gtr I
   E  E E E Q  E E   +E  E E E Q  E E   +E  E E E Q  E E
|------------------|------------------|------------------|
|------------------|------------------|------------------|
|------------------|------------------|------------------|
|-------5----------|-------5----------|-------5----------|
|-----7--------7---|-----7--------7---|-----7--------7---|
|-(0)-----6-5----0-|-(0)-----6-5----0-|-(0)-----6-5----0-|
|
|
| Gtr II	(w/wah)
| H    Q  E      E   +W                 +W
|----------------0-|-(0)--------------|-(0)--------------|
|----------------0-|-(0)--------------|-(0)--------------|
|----------------0-|-(0)--------------|-(0)--------------|
|----------------2-|-(2)--------------|-(2)--------------|
|------------------|------------------|------------------|
|------------------|------------------|------------------|


  Gtr I
   E  E E E Q  E E   +E  E E E Q  E E   +E  E E E Q  E E
|------------------|------------------|------------------|
|------------------|------------------|------------------|
|------------------|------------------|------------------|
|-------5----------|-------5----------|-------5----------|
|-----7--------7---|-----7--------7---|-----7--------7---|
|-(0)-----6-5----0-|-(0)-----6-5----0-|-(0)-----6-5----0-|
|
|
| Gtr II
| W                   H    Q  E     E   +W
|------------------|----------------0-|-(0)--------------|
|------------------|----------------0-|-(0)--------------|
|------------------|----------------0-|-(0)--------------|
|------------------|----------------2-|-(2)--------------|
|------------------|------------------|------------------|
|------------------|------------------|------------------|


  Gtr I
   E  E E E Q  E E   +E  E E E Q  E E   +E  E E E Q  E E
|------------------|------------------|------------------|
|------------------|------------------|------------------|
|------------------|------------------|------------------|
|-------5----------|-------5----------|-------5----------|
|-----7--------7---|-----7--------7---|-----7--------7-2-|
|-(0)-----6-5----0-|-(0)-----6-5----0-|-(0)-----6-5----0-|
|
|
|                                                      E5
| Gtr II
| +W                  W                 W              E
|-(0)--------------|------------------|------------------|
|-(0)--------------|------------------|------------------|
|-(0)--------------|------------------|------------------|
|-(2)--------------|------------------|------------------|
|------------------|------------------|----------------x-|
|------------------|------------------|------------------|


  Gtr I
      PM--------|      PM----------|      PM----------|
   E  E E E E E E  E   E E E E E E E  E   E E E E E E E  E
|--------------------|------------------|------------------|
|--------------------|------------------|------------------|
|--------------------|------------------|------------------|
|--------------------|------------------|------------------|
|-(2)-------------/7-|---------------/7-|---------------/7-|
|-(0)-0-0-0-0-0-0----|-0-0-0-0-0-0-0----|-0-0-0-0-0-0-0----|
|
|
| Gtr II
|  +W                  +W                 +W
|--------------------|------------------|------------------|
|--------------------|------------------|------------------|
|--------------------|------------------|------------------|
|--------------------|------------------|------------------|
|--------------------|------------------|------------------|
|-(x)----------------|-(x)--------------|-(x)--------------|


  Gtr I
  PM----------|      PM|      PM--|     PM|      PM--|
  E E E E E E E  E   E E  E E E E E E   E E  E E E E E E
|------------------|------------------|------------------|
|------------------|------------------|------------------|
|------------------|------------------|------------------|
|------------------|------------------|------------------|
|---------------/7-|-----/7---------3-|-----/7---------3-|
|-0-0-0-0-0-0-0----|-0-0----6-0-0-0-1-|-0-0----6-0-0-0-1-|
|
|
|                E5
| Gtr II
| +H..           E   +W                 +W
|------------------|------------------|------------------|
|------------------|------------------|------------------|
|------------------|------------------|------------------|
|------------------|------------------|------------------|
|------------------|------------------|------------------|
|-(x)------------x-|-(x)--------------|-(x)--------------|


  Gtr I
  PM|      PM--|     PM|      PM--|
  E E  E E E E E E   E E  E E E E E E
|------------------|------------------|
|------------------|------------------|
|------------------|------------------|
|------------------|------------------|
|-----/7---------3-|-----/7---------3-|
|-0-0----6-0-0-0-1-|-0-0----6-0-0-0-1-|
|
|
|                         A5 A5 E5
| Gtr II
| +W                 +Q.   Q  Q  E
|------------------|------------------|
|------------------|------------------|
|------------------|------------------|
|------------------|------------------|
|------------------|------------------|
|-(x)--------------|-(x)---x--x--x----|


MAIN PART*************************************************************
(not the two first bars)
					    
					   
    Gtr I				    
    PM|        PM|       PM|        PM|                  ~  PM
    E E  E E E E E E  7x E E  E E E E E E     +E  E  E E Q  E E
||--------------------||------------------||--------------------|
||o------------------o||------------------||o-------------------|
||--------------------||------------------||--------------------|
||--------------------||------------------||--------------------|
||o-----/7---------3-o||-----/7---------2-||o-(2)-2-/7--------2-|
||--0-0----6-5-0-0-1--||-0-0----6-5-0-0-0-||--(0)-0----6-5--0-0-|


  Gtr I
             ~  PM               ~  PM        PM--------|
   E  E  E E Q  E E   +E  E  E E Q  E E   +E  E E E E E E E
|-------------------|-------------------|--------------------||
|-------------------|-------------------|-------------------o||
|-------------------|-------------------|--------------------||
|-------------------|-------------------|--------------------||
|-(2)-2-/7--------2-|-(2)-2-/7--------5-|-(5)---4---4-5-4-2-o||
|-(0)-0----6-5--0-0-|-(0)-0----6-5--0-3-|-(3)-0-2-0-2-3-2-0--||


  Gtr I
      PM--------|     PM----------|     PM----------|
   E  E E E E E E E   E E E E E E E E   E E E E E E E E
|-------------------|-----------------|-----------------|
|-------------------|-----------------|-----------------|
|-------------------|-----------------|-----------------|
|-------------------|-----------------|-----------------|
|-(2)-------------3-|---------------3-|---------------5-|
|-(0)-0-0-0-0-0-0-1-|-0-0-0-0-0-0-0-1-|-0-0-0-0-0-0-0-3-|


  Gtr I
      PM--------|         PM--------|     PM----------|
   E  E E E E E E E    E  E E E E E E E   E E E E E E E E
|-------------------|-------------------|-----------------|
|-------------------|-------------------|-----------------|
|-------------------|-------------------|-----------------|
|-------------------|-------------------|-----------------|
|-(5)---4---4-5-4-2-|-(2)-------------3-|---------------3-|
|-(3)-0-2-0-2-3-2-0-|-(0)-0-0-0-0-0-0-1-|-0-0-0-0-0-0-0-1-|


  Gtr I
  PM----------|         PM--------|
  E E E E E E E E    E  E E E E E E E   +E  E E E Q  E E
|-----------------|-------------------|------------------|
|-----------------|-------------------|------------------|
|-----------------|-------------------|-------2----------|
|-----------------|-------------------|-----4--------4---|
|---------------5-|-(5)---4---4-5-4---|---------3-2------|
|-0-0-0-0-0-0-0-3-|-(3)-0-2-0-2-3-2-2-|-(2)------------2-|


  Gtr I
  +E  E E E Q  E E   +E  E E E Q  E E   +E  E E E Q   Q
|------------------|------------------|-------------------|
|------------------|------------------|-------------------|
|-------2----------|-------2----------|-------2-----------|
|-----4--------4---|-----4--------4---|-----4-------------|
|---------3-2------|---------3-2------|---------3-2-------|
|-(2)------------2-|-(2)------------2-|-(2)----------14\--|


  Gtr I
  Q  E E Q.   E   +Q   E E Q.   E   +Q   E E Q.   E
|---------------|-----------------|-----------------|
|---------------|-----------------|-----------------|
|---------------|-----------------|-----------------|
|--------4------|----------4------|----------4------|
|-4--4-3-2----4-|-(4)--4-3-2----4-|-(4)--4-3-2----2-|
|-2-----------2-|-(2)-----------2-|-(2)-----------0-|


  Gtr I
       PM--------|                        PM--------|
  +Q   E E E E E E   Q  E E Q.   E   +Q   E E E E E E
|------------------|---------------|------------------|
|------------------|---------------|------------------|
|----------2---4---|---------------|--------------2---|
|------5-2---2---5-|--------4------|------5-2-5-2---2-|
|-(2)--------------|-4--4-3-2----2-|-(2)--------------|
|-(0)--------------|-2-----------0-|-(0)--------------|


  Gtr I
    PM--------|                ~  PM               ~  PM
  E E E E E E E E   +E  E  E E Q  E E   +E  E  E E Q  E E
|-----------------|-------------------|-------------------|
|-----------------|-------------------|-------------------|
|-----------------|-------------------|-------------------|
|-----------------|-------------------|-------------------|
|-5---4---4-5-4-2-|-(2)-2-/7--------2-|-(2)-2-/7--------2-|
|-3-0-2-0-2-3-2-0-|-(0)-0----6-5--0-0-|-(0)-0----6-5--0-0-|


  Gtr I
             ~  PM        PM--------|
  +E  E  E E Q  E E   +E  E E E E E E E
|-------------------|-------------------|
|-------------------|-------------------|
|-------------------|-------------------| play this again and return to main part
|-------------------|-------------------|
|-(2)-2-/7--------5-|-(5)---4---4-5-4-2-|
|-(0)-0----6-5--0-3-|-(3)-0-2-0-2-3-2-0-|


CODA*************************************************************

  Gtr I
  H..       E
|-------------|
|-------------|
|-------------|
|-------------|
|-2---------2-|
|-0---------0-|

SOLO*************************************************************


  Gtr III
   E  E  E  E  E       Q   E       +E   E  E  E  Q      E     E     S  S  S  S  S  S  S  S  S  S  S  S  S  S  S  S
|-------------------------------|--------------------------------|-------------------------------------------------|
|-15-15-15-12---------12--------|------12-12----15b17--15b17-15\-|-------------------------------------------------|
|-------------14b14.5-----14b16-|-(14)-------14------------------|-12S14-14-14-14S12-12-12-12S14-14-14-14S12-12-12-|
|-------------------------------|--------------------------------|-------------------------------------------------|
|-------------------------------|--------------------------------|-------------------------------------------------|
|-------------------------------|--------------------------------|-------------------------------------------------|
|
|
| Gtr I
|            ~              PM               ~               PM               ~                        PM
| +E  E  E E Q              E E   +E  E  E E Q               E E   +E  E  E E Q                        E E
|-------------------------------|--------------------------------|-------------------------------------------------|
|-------------------------------|--------------------------------|-------------------------------------------------|
|-------------------------------|--------------------------------|-------------------------------------------------|
|-------------------------------|--------------------------------|-------------------------------------------------|
|-(2)-2-/7--------------------2-|-(2)-2-/7---------------------2-|-(2)-2-/7------------------------------5---------|
|-(0)-0----6-5--------------0-0-|-(0)-0----6-5---------------0-0-|-(0)-0----6-5------------------------0-3---------|


  Gtr III
                              ~~~~~~
   S  S  E  S  S  E  S  S  E  E  E     S     S  S  S  S     S  S  S  S     S  S  S  S     S  S  S
|-----------------------------------|-------12-12-12-------12-12-12-------12-12-12-------12-12-12-|
|-----------------------------------|-15b17----------15b17----------15b17----------15b17----------|
|-14p12-----------------------------|-------------------------------------------------------------|
|-------14-14p12--------------------|-------------------------------------------------------------|
|----------------14-14p12S10--------|-------------------------------------------------------------|
|----------------------------12-12\-|-------------------------------------------------------------|
|
|
| Gtr I
|     PM--------|                                ~                                 PM
| +E  E E E E E E E                   +E  E  E E Q                                 E E
|-----------------------------------|-------------------------------------------------------------|
|-----------------------------------|-------------------------------------------------------------|
|-----------------------------------|-------------------------------------------------------------|
|-----------------------------------|-------------------------------------------------------------|
|-(5)---4---4-5-4-2-----------------|-(2)-2-/7--------------------------------------2-------------|
|-(3)-0-2-0-2-3-2-0-----------------|-(0)-0----6-5--------------------------------0-0-------------|


  Gtr III
   S  S  S  T  T  E  T  T  S  T  T  S  S  S  S  S  S  S
|----12-12-12h15p12-12h15p12-12h15p12-12-15-12-12-14-14-|
|-15----------------------------------------------------|
|-------------------------------------------------------|
|-------------------------------------------------------|
|-------------------------------------------------------|
|-------------------------------------------------------|
|
|
| Gtr I
|            ~  PM
| +E  E  E E Q  E E
|-------------------------------------------------------|
|-------------------------------------------------------|
|-------------------------------------------------------|
|-------------------------------------------------------|
|-(2)-2-/7--------2-------------------------------------|
|-(0)-0----6-5--0-0-------------------------------------|

[ Tab from: http://www.guitartabs.cc/tabs/m/metallica/enter_sandman_tab_ver_4.html ]
  Gtr III
                                                                                ~~~~~
   S  S  S  S  S  S  S  S  S  S  S  S  S  S  S  S    S  S  S  S  S  T  T  S  S  Q      E  E
|-17p14----17p14----17p14-19p15----19p15----19p15-|-21p17----21p17----21p17----22b24--22\------|
|-------15-------15-------------17-------17-------|-------17-------17-------17------------9b10-|
|-------------------------------------------------|---------------------------------------9b11-|
|-------------------------------------------------|--------------------------------------------|
|-------------------------------------------------|--------------------------------------------|
|-------------------------------------------------|--------------------------------------------|
|
|
| Gtr I
|            ~                        PM                PM--------|
| +E  E  E E Q                        E E           +E  E E E E E E E
|-------------------------------------------------|--------------------------------------------|
|-------------------------------------------------|--------------------------------------------|
|-------------------------------------------------|--------------------------------------------|
|-------------------------------------------------|--------------------------------------------|
|-(2)-2-/7------------------------------5---------|-(5)---4---4-5-4----------------------------|
|-(0)-0----6-5------------------------0-3---------|-(3)-0-2-0-2-3-2-2--------------------------|


  Gtr III
                                      ~~              ~~~~
  +Q   Q     +E  Q.     Q     Q     S E. S S S  S    +Q   S S S S a S S S S S S S S
|---------------------|---------------------------|---------------------------------|
|-(9)--9b10--(9)-9----|-9b10--9b10-------------10-|-(10)-10-8-7---7S9S7---7---------|
|-(9)--9b11--(9)-9----|-9b11--9b11--7-9------7----|-------------9-------9---9-7---7-|
|---------------------|------------------7-9------|-----------------------------9---|
|---------------------|---------------------------|---------------------------------|
|---------------------|---------------------------|---------------------------------|
|
|
| Gtr I
| +E  E E E Q     E E    E  E E E Q         E E     +E  E E E Q           E E
|---------------------|---------------------------|---------------------------------|
|---------------------|---------------------------|---------------------------------|
|-------2-------------|-------2-------------------|-------2-------------------------|
|-----4-----------4---|-----4---------------4-----|-----4-----------------4---------|
|---------3-2---------|---------3-2---------------|---------3-2---------------------|
|-(2)---------------2-|-(2)-------------------2---|-(2)---------------------2-------|


  Gtr III
                                                         ~~
  S S S S S S S S S S S  S E  E    E     E  E.  S  E     E  E.  S
|-------------------------------|---------------------------------|
|-------------------------------|---------------------------------|
|-9p7---------------------------|-16b18-14-----14-16b18-14-----14-|
|-----9p7---7-9-7---------------|----------16--------------16-----|
|---------9-------9-8-7---------|---------------------------------|
|-----------------------10-7\---|---------------------------------|
|
|
| Gtr I
| +E  E E E Q         Q           Q  E E Q.             E
|-------------------------------|---------------------------------|
|-------------------------------|---------------------------------|
|-------2-----------------------|---------------------------------|
|-----4-------------------------|--------4------------------------|
|---------3-2-------------------|-4--4-3-2----------------------4-|
|-(2)----------------14\--------|-2-----------------------------2-|


  Gtr III                                                                          \1/   \1/   \1/   \1/   \1/   \1/
   E     E  E.  S  E     E  E  S  S    E     S  E     S  E     +Q    E  E        +Q    +E    +E    +E    +E    +E    +E
|-----------------------------------|-----------------------------------------|-------------------------------------------|
|-----------------------------------|-------17-------17-------------17--------|-------------------------------------------|
|-16b18-14-----14-16b18-14-------14-|-16b18----16b18----16b18-(16)-----16b18==|-(16)r=(16)==(16)==(16)==(16)==(16)==(16)--|
|----------16--------------16-16----|-----------------------------------------|-------------------------------------------|
|-----------------------------------|-----------------------------------------|-------------------------------------------|
|-----------------------------------|-----------------------------------------|-------------------------------------------|
|
|
| Gtr I
|                                                                                    PM--------|
|  Q   E E Q.                     E   +Q   E E Q.                         E     +Q   E E E E E E
|-----------------------------------|-----------------------------------------|-------------------------------------------|
|-----------------------------------|-----------------------------------------|-------------------------------------------|
|-----------------------------------|-----------------------------------------|----------2---4----------------------------|
|----------4------------------------|----------4------------------------------|------5-2---2---5--------------------------|
|-(4)--4-3-2----------------------4-|-(4)--4-3-2--------------------------2---|-(2)---------------------------------------|
|-(2)-----------------------------2-|-(2)---------------------------------0---|-(0)---------------------------------------|


  Gtr III                                                                              ~~~~~
   S  S  S  S  S  S  T  T  S  S  S  S  S  S  S  T  T  S   E      S  S   E      S  S   Q.      E
|-21p17----21p17----21p17----21p17----21p17----21p17----|-22b24==22-22r-22b24==22-22r-22b24---22\-|
|-------17-------17-------17-------17-------17-------17-|-----------------------------------------|
|-------------------------------------------------------|-----------------------------------------|
|-------------------------------------------------------|-----------------------------------------|
|-------------------------------------------------------|-----------------------------------------|
|-------------------------------------------------------|-----------------------------------------|
|
|
| Gtr I
|                                                             PM--------|
| Q  E E Q.   E                                          +Q   E E E E E E
|------------------------------------------------------|------------------------------------------|
|------------------------------------------------------|------------------------------------------|
|------------------------------------------------------|--------------2---------------------------|
|--------4---------------------------------------------|------5-2-5-2---2-------------------------|
|-4--4-3-2----2----------------------------------------|-(2)--------------------------------------|
|-2-----------0----------------------------------------|-(0)--------------------------------------|


    Gtr III
                                     ~~~~~~~~
     |-3-|
  E  S S S E S S E S S E E     S E. +Q   +Q.   S S
|----------------------------|---------------------|
|---10p8p7-------------------|---------------------|
|----------9-9p7-------------|---------------------|
|----------------9-9p7-5-7b9-|-5-------------------|
|----------------------------|---7--(7)--(7)---5h7-|
|----------------------------|---------------------|
|
|
| Gtr I
| E E Q  H                      W
|----------------------------|---------------------|
|----------------------------|---------------------|
|----------------------------|---------------------|
|----------------------------|---------------------|
|-2--------------------------|---------------------|
|-0--------------------------|---------------------|


  Gtr III
                        \1/  \1/  \1/  \1/  \1/  \1/    \1/  \1/  \1/  \1/  \1/  \1/  \1/  \1/
      ~~~~~~~~
  Q  +Q   +Q.   E   Q  +E   +E   +E   +E   +E   +E     +E   +E   +E   +E   +E   +E   +E   +E
|-----------------|----------------------------------|-----------------------------------------|
|-----------------|----------------------------------|-----------------------------------------|
|-----------------|----------------------------------|-----------------------------------------|
|-----------------|----------------------------------|-----------------------------------------|
|-4--(4)--(4)---0-|-2--(2)--(2)--(2)--(2)--(2)--(2)--|-(2)--(2)--(2)--(2)--(2)--(2)--(2)--(2)--|
|-----------------|----------------------------------|-----------------------------------------|
|
|
| Gtr I
| W                   W                                  H     Q       E                     E
|-----------------|----------------------------------|-----------------------------------------|
|-----------------|----------------------------------|-----------------------------------------|
|-----------------|----------------------------------|-----------------------------------------|
|-----------------|----------------------------------|-----------------------------------------|
|-----------------|----------------------------------|-----------------------------------------|
|-----------------|----------------------------------|---------------------------------------0-|


  Gtr III
   \1/
   W            +W           W
|-------------|------------|----------|
|-------------|------------|----------|
|-------------|------------|----------|
|-------------|------------|----------|
|-(2)---------|-(2)--------|----------|
|-------------|------------|----------|
|
|
Gtr 1 (nothing)

LAST PART*************************************************************

  Gtr I
   E  E E E Q  E E   +E  E E E Q  E E   +E  E E E Q  E E
|------------------|------------------|------------------|
|------------------|------------------|------------------|
|------------------|------------------|------------------|
|-------5----------|-------5----------|-------5----------|
|-----7--------7---|-----7--------7---|-----7--------7---|
|-(0)-----6-5----0-|-(0)-----6-5----0-|-(0)-----6-5----0-|


  Gtr I
   E  E E E Q  E E   +E  E E E Q  E E   +E  E E E Q  E E
|------------------|------------------|------------------|
|------------------|------------------|------------------|
|------------------|------------------|------------------|
|-------5----------|-------5----------|-------5----------|
|-----7--------7---|-----7--------7---|-----7--------7---|
|-(0)-----6-5----0-|-(0)-----6-5----0-|-(0)-----6-5----0-|


  Gtr I
   E  E E E Q  E E   +E  E E E Q  E E
|------------------|------------------|
|------------------|------------------|
|------------------|------------------|
|-------5----------|-------5----------|
|-----7--------7---|-----7--------7---|
|-(0)-----6-5----0-|-(0)-----6-5----2-|


  Gtr I
   E  E E E Q  E E   +E  E E E Q  E E   +E  E E E Q  E E
|------------------|------------------|------------------|
|------------------|------------------|------------------|
|-------2----------|-------2----------|-------2----------|
|-----4--------4---|-----4--------4---|-----4--------4---|
|---------3-2------|---------3-2------|---------3-2------|
|-(2)------------2-|-(2)------------2-|-(2)------------2-|


  Gtr I
   E  E E E Q  E E   +E  E E E Q  E E   +E  E E E Q  E E
|------------------|------------------|------------------|
|------------------|------------------|------------------|
|-------2----------|-------2----------|-------2----------|
|-----4--------4---|-----4--------4---|-----4--------4---|
|---------3-2------|---------3-2------|---------3-2------|
|-(2)------------2-|-(2)------------2-|-(2)------------2-|


  Gtr I
   E  E E E Q  E E   +E  E E E Q  E E
|------------------|------------------|
|------------------|------------------|
|-------2----------|-------2----------|
|-----4--------4---|-----4--------4---|
|---------3-2------|---------3-2------|
|-(2)------------2-|-(2)------------2-|


  Gtr I
  Q  E E Q.   E   +Q   E E Q.   E   +Q   E E Q.   E
|---------------|-----------------|-----------------|
|---------------|-----------------|-----------------|
|---------------|-----------------|-----------------|
|--------4------|----------4------|----------4------|
|-4--4-3-2----4-|-(4)--4-3-2----4-|-(4)--4-3-2----2-|
|-2-----------2-|-(2)-----------2-|-(2)-----------0-|


  Gtr I
       PM--------|                        PM--------|
   Q   E E E E E E   Q  E E Q.   E   +Q   E E E E E E
|------------------|---------------|------------------|
|------------------|---------------|------------------|
|----------2---4---|---------------|--------------2---|
|------5-2---2---5-|--------4------|------5-2-5-2---2-|
|-(2)--------------|-4--4-3-2----2-|-(2)--------------|
|-(0)--------------|-2-----------0-|-(0)--------------|


  Gtr I
  Q  E E Q.   E   +Q   E E Q.   E   +Q   E E Q.   E
|---------------|-----------------|-----------------|
|---------------|-----------------|-----------------|
|---------------|-----------------|-----------------|
|--------4------|----------4------|----------4------|
|-4--4-3-2----4-|-(4)--4-3-2----4-|-(4)--4-3-2----2-|
|-2-----------2-|-(2)-----------2-|-(2)-----------0-|


  Gtr I
       PM--------|                        PM--------|
   Q   E E E E E E   Q  E E Q.   E   +Q   E E E E E E
|------------------|---------------|------------------|
|------------------|---------------|------------------|
|----------2---4---|---------------|--------------2---|
|------5-2---2---5-|--------4------|------5-2-5-2---2-|
|-(2)--------------|-4--4-3-2----2-|-(2)--------------|
|-(0)--------------|-2-----------0-|-(0)--------------|


  Gtr I
                                             ~
  E E E E E E E E   +H.     E E   +E  E  E E Q  E E
|-----------------|-------------|-------------------|
|-----------------|-------------|-------------------|
|-----------------|-------------|-------------------|
|-----------------|-------------|-------------------|
|-5---4---4S5-5-2-|-(2)-------2-|-(2)-2-/7--------2-|
|-3-0-2-0-2S3-3-0-|-(0)-------0-|-(0)-0----6-5--0-0-|


  Gtr I
             ~                   ~                   ~
   E  E  E E Q  E E   +E  E  E E Q  E E   +E  E  E E Q  E E
|-------------------|-------------------|-------------------|
|-------------------|-------------------|-------------------|
|-------------------|-------------------|-------------------|
|-------------------|-------------------|-------------------|
|-(2)-2-/7--------2-|-(2)-2-/7--------2-|-(2)-2-/7--------2-|
|-(0)-0----6-5--0-0-|-(0)-0----6-5--0-0-|-(0)-0----6-5--0-0-|


  Gtr I
             ~                   ~                   ~
   E  E  E E Q  E E   +E  E  E E Q  E E   +E  E  E E Q  E E
|-------------------|-------------------|-------------------|
|-------------------|-------------------|-------------------|
|-------------------|-------------------|-------------------|
|-------------------|-------------------|-------------------|
|-(2)-2-/7--------2-|-(2)-2-/7--------2-|-(2)-2-/7--------5-|
|-(0)-0----6-5--0-0-|-(0)-0----6-5--0-0-|-(0)-0----6-5--0-3-|


  Gtr I
   E  E E E E E E E   +E  E  E E E E E E   E E  E E E E E E
|-------------------|--------------------|------------------|
|-------------------|--------------------|------------------|
|-------------------|--------------------|------------------|
|-------------------|--------------------|------------------|
|-(5)---4---4-5-4-2-|-(2)---/7---------3-|-----/7---------3-|
|-(3)-0-2-0-2-3-2-0-|-(0)-0----6-5-0-0-1-|-0-0----6-5-0-0-1-|


  Gtr I
  E E  E E E E E E   E E  E E E E E E     E E  E E E E E E  4x
|------------------|------------------||--------------------||
|------------------|------------------||o------------------o||
|------------------|------------------||--------------------||
|------------------|------------------||--------------------||
|-----/7---------3-|-----/7---------3-||o-----/7---------3-o||
|-0-0----6-5-0-0-1-|-0-0----6-5-0-0-1-||--0-0----6-0-0-0-1--||


  Gtr I
    E E  E E E E E E
||--------------------||
||o------------------o||
||--------------------|| repeat and fade out
||--------------------||
||o-----/7-----------o||
||--0-0----0-0-0-0-0--||

TAB EXPLANATION*************************************************************

Duration Legend
---------------
W - whole; 
H - half; 
Q - quarter; 
E - 8th; 
S - 16th; 
T - 32nd; 
X - 64th; 
a - acciaccatura
+ - note tied to previous; 
. - note dotted; 
.. - note double dotted
Uncapitalized letters represent notes that are staccato (1/2 duration)
Irregular groupings are notated above the duration line
Duration letters will always appear directly above the note/fret number it represents the
duration for.  Duration letters with no fret number below them represent rests.  Multi-
bar rests are notated in the form Wxn, where n is the number of bars to rest for.  Low
melody durations appear below the staff

Tablature Legend
----------------
 h   - hammer-on
 p   - pull-off
 b   - bend
 pb  - pre-bend
 r   - bend release (if no number after the r, then release immediately)
 /\  - slide into or out of (from/to "nowhere")
 s   - legato slide
 S   - shift slide
  - natural harmonic
[n]  - artificial harmonic
n(n) - tapped harmonic
 ~   - vibrato
 tr  - trill
 T   - tap
 TP  - trem. picking
 PM  - palm muting
\n/  - tremolo bar dip; n = amount to dip
 \n  - tremolo bar down
 n/  - tremolo bar up
/n\  - tremolo bar inverted dip
 =   - hold bend; also acts as connecting device for hammers/pulls
   - volume swell (louder/softer)
 x   - on rhythm slash represents muted slash
 o   - on rhythm slash represents single note slash

Misc Legend
-----------
 |  - bar
||  - double bar
||o - repeat start
o|| - repeat end
*|  - double bar (ending)
 :  - bar (freetime)
 $  - Segno
 &  - Coda
Tempo markers -  = BPM(8/16=s8/s16), where s8 = swing 8ths, s16 = swing 16ths


***************************************************************************************
* Generated using Power Tab Editor by Brad Larsen - http://powertab.guitarnetwork.org *
***************************************************************************************
Comments