Metallica - Enter Sandman Solo Chords & Tabs

 

Enter Sandman Solo Chords & Tabs

Metallica Chords & Tabs

Version: 1 Type: Tab 1 rating
1 star 2 stars 3 stars 4 stars 5 stars
comments

Enter Sandman Solo Tab

Metallica - Enter Sandman - SOLO
NOTE * Play Solo with wah wah effect

|--------------------------------|------------------------------|
|--15--15--15----------------15--|----15--15--------15b---15b---|
|--14b-14b-14b-14--14b-14----14b-|----14--14--14p12-------------|
|--------------------------------|------------------------------|
|--------------------------------|------------------------------|
|--------------------------------|------------------------------|


|--------------------------------------------------|
|--------------------------------------------------|
|--12/14-14-14-14\12-12-12-12/14-14-14-14\12-12-12-|
|--------------------------------------------------|
|--10/12-12-12-12\10-10-10-10/10-10-10-10\10-10-10-|
|--------------------------------------------------|

|--------------------------------------|
|--------------------------------------|
|--14-12-------------------------------|
|--------14--14p12---------------------|
|------------------14--14p12-----------|
|----------------------------15--12~---|


|-----12----12----12----12----12----12----12----12-|
|--15b---15b---15b---15b---15b---15b---15b---15b---|
|--------------------------------------------------|
|--------------------------------------------------|
|--------------------------------------------------|
|--------------------------------------------------|


|-----12----12h15p12----12h15p12----12h15p12----12-15-12-12-14-14-|
|--15b---15b---------15----------15----------15-------------------|
|-----------------------------------------------------------------|
|-----------------------------------------------------------------|
|-----------------------------------------------------------------|
|-----------------------------------------------------------------|


                                                   
|--17p14----17p14----17p14-19p15----19p15----19p15-|
|--------15-------15-------------17-------17-------|
|--------------------------------------------------|
|--------------------------------------------------|
|--------------------------------------------------|
|--------------------------------------------------|


                                                           
|--21p17----21p17p0-21p17-22b--|
|--------17--------------------|
|------------------------------|
|------------------------------|
|------------------------------|
|------------------------------|

|--9b-------9b-----9b-----|
|--9b-------9b-----9b-----|
|-------------------------|
|-------------------------|
|-------------------------|

[ Tab from: http://www.guitartabs.cc/tabs/m/metallica/enter_sandman_solo_tab.html ]
                                                            
|---------------------------|-------------------------------|
|--9b---9b---------------10~|------10-8-7---8p7---7---------|
|--9b---9b---7---------7----|-------------9-----9---9-7---7-|
|--------------9~--7h9------|---------------------------9---|
|---------------------------|-------------------------------|
|---------------------------|-------------------------------|


                                                                        
|--------------------------------|
|--------------------------------|
|--9p7---------------------------|
|------9p7---7-9p7---------------|
|----------9-------9-8-7-5-------|
|--------------------------7--5\-|

|--------------------------------------|
|--------------------------------------|
|--16b-14---------14-16b-14~--------14-|
|----------16--16------------16--16----|
|--------------------------------------|
|--------------------------------------|


                                                                          
|--------------------------------------|----------------------------------|
|--------------------------------------|------17-------17-17------17--17--|
|--16b-14~--------14-16b-14---------14-|--16b----16-16b---16b---------16b-|
|----------16--16------------16~-16----|----------------------------------|
|--------------------------------------|----------------------------------|
|--------------------------------------|----------------------------------|


                                                                              
  
|----------------------------|--21p17p0-21p17p0-21p17p0-21p17p0-21p17p0-21p17p0-|
|----------------------------|--------------------------------------------------|
|------16--16----16--16------|--------------------------------------------------|
|------------------------20--|--------------------------------------------------|
|----------------------------|--------------------------------------------------|
|----------------------------|--------------------------------------------------|


                                                                
|--22b-22b22b22b-22b22b22b-------|
|--------------------------------|
|--------------------------------|
|--------------------------------|
|--------------------------------|
|--------------------------------|

|----5p3p0---------------------|
|----------5--5p3-0------------|
|--------------------4p2-0--2b-|
|------------------------------|
|------------------------------|
|------------------------------|


                                                                       
|-----------------------|--------------------|-------------------------|
|-----------------------|--------------------|-------------------------|
|--0--------------------|--------------------|-------------------------|
|----2~-----------0h2p0-|--------------------|-------------------------|
|-----------------------|--4~-------------0--|--2----2--2--2--2--2--2--|
|-----------------------|--------------------|-------------------------|


                                                                  
|--------------------------|
|--------------------------|
|--------------------------|
|--------------------------|
|--2--2--2--2--2--2--2-----|
|-----------------------0--|

 

    

 
  

 
Comments