Metallica - Enter Sandman Intro Chords & Tabs

 

Enter Sandman Intro Chords & Tabs

Metallica Chords & Tabs

Version: 1 Type: Bass Tab 0 ratings
1 star 2 stars 3 stars 4 stars 5 stars
comments

Enter Sandman Intro Bass Tab

                    x 12 times
G--|----0-----------| 
D--|--2--------2----|
A--|------1-0-------|
E-0|-------------0--|


G--------------
D-----------2--
A--------------
E-0-0-0-0-0----
[ Tab from: http://www.guitartabs.cc/tabs/m/metallica/enter_sandman_intro_btab.html ]
Comments