Metallica - Enter Sandman Chords & Tabs

 

Enter Sandman Chords & Tabs

Metallica Chords & Tabs

Version: 6 Type: Bass Tab 0 ratings
1 star 2 stars 3 stars 4 stars 5 stars
comments

Enter Sandman Bass Tab

   
Song: Enter Sandman
Band: Metallica
Album: Metallica (Black Album)
Bassist: Jason Newsted

Intro is guitar only, no bass [x8]

g|---------|
d|--5------|
a|-7----7--|
e|0--65----|

1. bass fill [x20]

g|---------|
d|---------|
a|--7------|
e|00-65-00-|

2. chorus tune [x2]

g|---------|
d|--5------|
a|-7----7--|  x3
e|0--65----|

g|---------|
d|---------|
a|---------|  x1
e|3-0202320

3. verse [x2]

say your prayers...
g|-------------------------------------|
d|-------------------------------------|
a|-------------------------------------|
e|00000001-00000001-00000003-3-0202320-|

4. pre-chorus [x1]

sleep with one eye open...
g|-----------------0-0-2--|
d|------------------2-2-2-|
a|--32---32---32----------|
e|2----2----2----0--------|

5. chorus [x2] as above

exit light...
g|---------|
d|--5------|
a|-7----7--|  x3
e|0--65----|

g|---------|
d|---------|
a|---------|  x1
e|3-0202320

6. post-chorus is chorus tune [x2]

g|---------|
d|--5------|
a|-7----7--|  x3
e|0--65----|

g|---------|
d|---------|
a|---------|  x1
e|3-0202320


7. verse [x2]

something's wrong...
g|-------------------------------------|
d|-------------------------------------|
a|-------------------------------------|
e|00000001-00000001-00000003-3-0202320-|

8. pre-chorus [x1]
[ Tab from: http://www.guitartabs.cc/tabs/m/metallica/enter_sandman_btab_ver_6.html ]
sleep with one eye open...
g|-----------------0-0-2--|
d|------------------2-2-2-|
a|--32---32---32----------|
e|2----2----2----0--------|

9. chorus [x2]

exit light...
g|---------|
d|--5------|
a|-7----7--|  x3
e|0--65----|

g|---------|
d|---------|
a|---------|  x1
e|3-0202320


10. guitar solo, bass plays chorus tune [x4]

g|---------|
d|--5------|
a|-7----7--|  x3
e|0--65----|

g|---------|
d|---------|
a|---------|  x1
e|3-0202320

then plays

g|-----------------------|
d|--5--------------------|
a|-7----7----------------|
e|0---65---0>--let-ringó-|

11. bass fill from part 1.

Now I lay you down to sleep...
g|---------|
d|---------|
a|--7------|  [x14]
e|00-65-00-|

in your closet...
g|-
d|-
a|-
e|0 [x16]

12. chorus [x4]

exit light...
g|---------|
d|--5------|
a|-7----7--|  x3
e|0--65----|

g|---------|
d|---------|
a|---------|  x1
e|3-0202320


13. guitar plays

g|---------|
d|--5------|
a|-7----7--|  [x2]
e|0---65---|

14. chorus tune is a bit different

ooooh! Yeah-yeah!
g|---------|
d|--5------|
a|-7----7--|  [x5]
e|0---65---|

yo-oh...
g|---------|
d|---------|
a|---------|  [x1]
e|3-0202320

15. outro, bass fill, repeat until faded out

we're off to never never land... take my hand...
g|---------|
d|---------|
a|--7------|
e|00-65-00-|

g|---------|
d|---------|
a|--7------|
e|00-65-00-|

g|---------|
d|---------|
a|--7------|
e|00-65-003

g|---------|
d|---------|
a|---------|
e|3-0202320
Comments