Metallica - Enter Sandman Chords & Tabs

 

Enter Sandman Chords & Tabs

Metallica Chords & Tabs

Version: 4 Type: Bass Tab 0 ratings
1 star 2 stars 3 stars 4 stars 5 stars
comments

Enter Sandman Bass Tab

   
after guitar intro 8 times,

Intro 1
G-------------
D-------------
A-------------
E-00-00-00-0-0  repeat 8 times

Intro 2
G------------
D------------
A----7-------
E-00--6-000-1 repeat 4 times

Intro 3
G--------------
D--------------
A----7---------
E-00--6-5-000-1 repeat 7 times

8th time play G-------------
              D-------------
              A----7--------
              E-00--6-5-00-0

Intro 4
G-----------------------------------
D-----------------------------------
A---7--7----7--7----7--7------------
E-0--65--000-65--000-65--3-02023-2-0 repeat 2 times

Verse 1
G-----------------------------------------------
D-----------------------------------------------
A-----------------------------------------------
E-00-00-00-01-00-00-00-01-00-00-00-03-020-23-2-0

G----------------------------------------------
D----------------------------------------------
A----------------------------------------------
E-00-00-00-01-00-00-00-01-00-00-00-03-020-230-2
[ Tab from: http://www.guitartabs.cc/tabs/m/metallica/enter_sandman_btab_ver_4.html ]
Bridge 1
G------------------------------------
D-------4--------4--------4---------4
A--0-3-2----0-3-2----0-3-2----0-3-22-
E-2------2-2------2-2------2-2-------

Chorus 1
G----------------------------------------
D----------------------------------------
A--4-3--22----4-3-22----4-3-22---------2-
E-2-------2-22------2-22------0-03-05-0-3

G-----------------------------------
D-----------------------------------
A--4-3-2-22-------------------------
E-2--------0-03-05-03-0-30-20-23-2-0

Play again from Intro 4 until Chorus 1 (including the repeats)

Guitar Solo~

Play Intro 4 (including the repeats) but last note play 2 (not 0)
Play Bridge 1 and Chorus 1 but some changes in the second part

G------------------------
D------------------------
A--4-3-2-22--------------
E-2--------0-03-05-03-0-0

Then play Intro 1 during the part where the kid and James talks....
When the singing part comes in play Intro 4 until the part where he laughs...

Then Outro is :

G--------------
D--------------
A----7---------
E-00--6-5-000-1 repeat 4 times

And

G------------
D------------
A----7-------
E-00--6-000-1 Until fade out

This is all i got.......
sorry if there is any mistakes........
hope u enjoy playing
Comments