Metallica - Dirty Window Chords & Tabs

 

Dirty Window Chords & Tabs

Metallica Chords & Tabs

Version: 4 Type: Tab 1 rating
1 star 2 stars 3 stars 4 stars 5 stars
comments

Dirty Window Tab

   
This is Dirty Window off of st. anger by metallica
This song is not in order I just put the various riffs, it would be 
to figure out the order they are played in though if you want to.

By: Zack----> haro_sport@yahoo.com

Tuning(from low tone to high): Db A D G B E

Intro/riff

---x   this sounds best if muted with left hand near the 1st fret.
---x
---x
---x
---x
---x

intro/riff

--------------------------------------------------------------------------
--------------------------------------------------------------------------
--------------------------------------------------------------------------
--------------------------------------------------------------------------
-------------------------4------------------------------------------------
-0-3-5-0-3-5-0-3-5---6-5------------------------------------------

riff
[ Tab from: http://www.guitartabs.cc/tabs/m/metallica/dirty_window_tab_ver_4.html ]
---------------------------------------------------------------------------
---------------------------------------------------------------------------
---------------------------------------------------------------------------
---------------------------------------------------------------------------
---------------------------------------------------------------------------
-0-3-5-0---0-3-5-6^8^6---------------------------------------------

riff

----------------------------------------------------------------------------
----------------------------------------------------------------------------
----------------------------------------------------------------------------
----------------------------------------------------------------------------
----------------------------------------------------------------------------
-3----3-3/5---------------------------------------------------------------

riff (played with 2 guitars but I have only found out 1 part)

----------------------------------------------------------------------------
----------------------------------------------------------------------------
-1---1---1/2-1------------------------------------------------------------
---2---4----------------------------------------------------------------------
----------------------------------------------------------------------------
----------------------------------------------------------------------------





Comments