Metallica - Dirty Window Chords & Tabs

 

Dirty Window Chords & Tabs

Metallica Chords & Tabs

Version: 1 Type: Bass Tab 0 ratings
1 star 2 stars 3 stars 4 stars 5 stars
comments

Dirty Window Bass Tab

ARTIST: METALLICA
song: Dirty Window
Album: ST.ANGER
====================
TUNING: FCGC " 2 step down-drop D"
===================================
into " with drums"

F:--x-x-x-x-x--x-x--x-x--x---
C:--x-x-x-x-x--x-x--x-x--x---
G:--x-x-x-x-x--x-x--x-x--x---  Repeat (X6)
C:--x-x-x-x-x--x-x--x-x--x---

Played over with the guitar 

|-----------|------------|----------|
|-----------|------------|----------|
|-----------|------------|----------|
|-----------|--0-------0-|-0------0-|

***VERSES***
|------------------------|                 |--------------------|
|------------------------|                 |--------------------|
|-------------------5----|     REPEAT (X4) |--------------------|
|-0-3-5-0-3-5-0-3-5---6-5|                 |---0--x-3-x-5--5-5-5|
 

( Repeat all the riff 2 Times)

|-----------------------      
|-----------------------       Along with the (PM) Guitar  (X3)
|------------------5----
|-0-3-5-0-3-5-0-3-5--6-5

" Am I who I think I'M......."
[ Tab from: http://www.guitartabs.cc/tabs/m/metallica/dirty_window_btab.html ]
|--------------------------|         |--------------------|
|--------------------------|    (X4) |--------------------|
|--------------------------|         |--------------------|
|-0-3-5-x-x-x-x-x-0-3-5-6~-|         |--0-3-5-0-3-5-0-3-5-|

|--------------------------|
|--------------------------|
|--------------------5-----|   (X2)    
|-0-3-5-0-3-5-0-3-5----6-5-|

" Guitar's soft part here after "

" I'm judging.....I'm Jury..........."
|--------------------------|
|--------------------------|    * _      _*    
|--------------------5-----|     _Softly_
|-0--3-5-0-3-5-0-3-5---6-5-|    *        *


".PRJECTOR...........PROTECTOR....................REJECTOR"
|-------------------------------------------|
|-------------------------------------------|
|-----------------------------------5-------|
|-0-3-5-0----0-3-5-0-------0-3-5-0----6-5-0-|

=================================================================================
Repeat all over again
+tab by HAMMERHEAD....WEBHACKER00@hotmail.com
Comments