Metallica - Die Die My Darling Chords & Tabs

 

Die Die My Darling Chords & Tabs

Metallica Chords & Tabs

Version: 1 Type: Tab 0 ratings
1 star 2 stars 3 stars 4 stars 5 stars
comments

Die Die My Darling Tab

   
Metallica, Die, die my darling.
Tabbed by Sebastian Lapidus, sebaslap@yahoo.com.
  
Die, die my darling

Intro:

e-----------------------------------------------------
B-----------------------------------------------------
G-3-3-3-3-3-3-3-3-3-----------------------------------
D-3-3-3-3-3-3-3-3-3-4-4-4-4-4-4-4-4-4-3-3-3-3-3-3-3-3-
A-1-1-1-1-1-1-1-1-1-4-4-4-4-4-4-4-4-4-3-3-3-3-3-3-3-3-
E-------------------2-2-2-2-2-2-2-2-2-1-1-1-1-1-1-1-1-

Chorus:

e-----------------------------------------------------
B-----------------------------------------------------
G-3-3-3-3-3-3-3-3-3-----------------------------------
D-3-3-3-3-3-3-3-3-3-4-4-4-4-4-4-4-4-4-3-3-3-3-3-3-3-3-
A-1-1-1-1-1-1-1-1-1-4-4-4-4-4-4-4-4-4-3-3-3-3-3-3-3-3-
E-------------------2-2-2-2-2-2-2-2-2-1-1-1-1-1-1-1-1-
[ Tab from: http://www.guitartabs.cc/tabs/m/metallica/die_die_my_darling_tab.html ]
Repeat a few 

Post-verse

e----------------------------------------------------
B----------------------------------------------------
G-8----3----8--------------------------3-3-3-3-3-3-3-
D-8----3----8-----4-4-4-4-4-4-4-4-4-4--3-3-3-3-3-3-3-
A-6----1----6-----4-4-4-4-4-4-4-4-4-4--1-1-1-1-1-1-1-
E-----------------2-2-2-2-2-2-2-2-2-2----------------

Verse:

e-----------------------------------------------------
B-----------------------------------------------------
G-----------------------------------3-3-3-3-3-3-3-3---
D-4-4-4-4-4-4-4-4--3-3-3-3-3-3-3-3--3-3-3-3-3-3-3-3---
A-4-4-4-4-4-4-4-2--3-3-3-3-3-3-3-3--1-1-1-1-1-1-1-1---
E-2-2-2-2-2-2-2-2--1-1-1-1-1-1-1-1--------------------

That's all, I really don't remember the order of the song so you have to listen to it. 
:: Ultimate Guitar Archive :: 
http://www.ultimate-guitar.com 

Comments