Metallica - Devils Dance Chords & Tabs

 

Devils Dance Chords & Tabs

Metallica Chords & Tabs

Version: 2 Type: Tab 0 ratings
1 star 2 stars 3 stars 4 stars 5 stars
comments

Devils Dance Tab

Tabs for 
Devil's Dance
 
Devil's Dance
written by: Hetfield and Ulrich
as performed on ReLoad
tab by Phil Boyle; ibzrg470@apk.net


Tune all guitars down one step.

Bass intro

1)
d----------------------------------------------
A----------------------------------------------
F----------------------------------------------
C--2-2-2------2-2-2-2---2-2-2------2-2-2-2-----
G--2-2-2-echo-2-2-2-2---2-2-2-echo-2-2-2-2-echo
D--0-0-0-echo-0-0-0-0---0-0-0-echo-0-0-0-0-echo
palm muted.........     .......................


2a) James
C--2-2-2-2-2--2-2--2-2--2-2-2-2
G--2-2-2-2-2--2-2--2-2--2-2-2-2
D--0-0-0-0-0--0-0--0-0--0-0-0-0
  pm...........................

                     grad bend
2b) Kirk             ^^^^^^
F-----------------------------
C------------5---5-7-7-7-7-5--
G--5h7-7-7-7---7-------------7
D-----------------------------
lead intro

3)
C--2-detune
G--2-detune
D--0-detune
 The detune is caused by bending the neck foward.


4a) James
C--------------------------------------------------------------
G--7------7------7------7------7----7----7----7----7-----------
D----6~~~~--5~~~~--6~~~~--5~~~~--6~~--5~~--6~~--5~~--6~~6-5-3-5

4b)
C--------------------------------3----2----3----2----3--3-2---3
G--------------------------------1----0----1----0----1--1-0---0
D-----------------------------------------------------------3--
intro/before verses


5)
C--------------------- four  --------
G--2-2-2-2-2-5--2-2-2- times --------
D--0-0-0-0-0-3--0-0-0- then  -5h6p5-3
  pm.........   .....        
verse
"Yeah, I feel you too."


6)
C-------------------- two   --------
G--5-5-5-5-5-5--5-5-5 times --------
D--3-3-3-3-3-3--3-3-3 then  -5h6p5-3
  pm.................
verse
"In your eyes."


7)
d------------------
A----5-------5-----
F------4~~~----4~~~
C--5-------5-------
G------------------
D------------------
lead fill (2nd and 3rd verses)


8)
C-----------------------------------------
G--5-5-5-5-5--5-5--5-5-5-5--4-4-4-4-4--4-4
D--3-3-3-3-3--3-3--3-3-3-3--2-2-2-2-2--2-2
  pm.....................................
"Deep inside you know these seeds I plant will grow"


9)
C--3--3-3-3--3-3-3--3-3-2----------------3
G--1--1-1-1--1-1-1--1-1-0--2-2--5-5--2---1
D--------------------------0-0--3-3--0-3--
  pm......................................
chorus
"Some day you will see."

_________________________________________________

solo:  *This solo is very difficult to play without a whammy/pitch shifting
        pedal and a Floyd Rose or other locking tremlo bridge.  Kirk uses it in 
        various places which allows him to hit just one note and take it all over
        the place without moving.  The solo also uses tremlo and octave effects
        which gives it the real "out there" sound.*

play rhythm riff 2b twice
[ Tab from: http://www.guitartabs.cc/tabs/m/metallica/devils_dance_tab_ver_2.html ]
1)
d----------------------------------------------------------------
A----------------------------------------------------------------
F--12~~12~~12~~12~~12~~12~~12~~11~~11~~10~~9~~8~~7~~6~~5~~4~3~2~1
C----------------------------------------------------------------
G----------------------------------------------------------------
D----------------------------------------------------------------
The octave and tremlo come in here which give the vibrating sound
and instead of sliding down the neck, Kirk just uses the trem, or
the pitch shifter, and just picks the 12.


2)
d--/12--15-15-15--12\-/12--15-15-15--12\-/12--15-15-17-15
A--/12--17-17-17--12\-/12--17-17-17--12\-/12--17-17-17-17
F--/12------------12\-/12------------12\-/12-------------
C--------------------------------------------------------
G--------------------------------------------------------
D--------------------------------------------------------
this is played several times, but it doesn't change much.


3)  ^  ^  ^                              ^  ^  ^  ^  ^
d--------------------------------------------------------------------------
A--14-14-14-----------------------------14-14-14-14-14-------------------12
F--14-14-14-12----------------------12--14-14-14-14-14-12----------------12
C--------------14-12-14----14~~14~~-----------------------14-12-14-14-14---
G--------------------------------------------------------------------------
D--------------------------------------------------------------------------
"One day you will see."               "And dare to come down to me."
The rest of the sung part pretty much follows this or close to it.


4a)
d-----------------------------------------------16/17/18/19/20\19\18\17
A-----------------------------------17/18/19/20------------------------
F--14/14/15/15/16/16/17/17/18/19/20------------------------------------
C----------------------------------------------------------------------
G----------------------------------------------------------------------
D----------------------------------------------------------------------

4b)
d--17\16\15/16/17/18/19/20\19\18\17----
A-----------------------------------\12
F-----------------------------------\12
C--------------------------------------
G--------------------------------------
D--------------------------------------
Here is the biggest part where the pitch shifting comes in, Kirk also hits
the Rose for the stuttering sound.  I think the only note he actually plays
is the F-14.


5)
d-------------------------------12----12------------------
A----------------------------12----15----15-12------------
F-------------------------14-------------------14-12------
C--7-7-5---5-----------7-----------------------------14-12
G--------7---7-5-7-5-7------------------------------------
D---------------------------------------------------------


6)
d--------------------------------------------------------
A--------------------------------------------------------
F--12h13p12h13h14p13h14h15p14h15h16p15h16h17 ect up to 22
C--------------------------------------------------------
G--------------------------------------------------------
D--------------------------------------------------------
guess which effect is used here.



 

 
Comments