Metallica - Damage Inc Chords & Tabs

 

Damage Inc Chords & Tabs

Metallica Chords & Tabs

Version: 3 Type: Tab 0 ratings
1 star 2 stars 3 stars 4 stars 5 stars
comments

Damage Inc Tab

                                  Damage, Inc.
                                  By Metallica
                              from Master of Puppets


Intro (after Cliff's solo)
||-----------------------------------------------------------------------------
||-----------------------------------------------------------------------------
||-----------------------------------------------------------------------------
||2--2--2-----2-----3--3--3--3-----2--2--2-----2-----3--3--3--3-----2--2--2----
||2--2--2-----2-----3--3--3--3-----2--2--2-----2-----3--3--3--3-----2--2--2----
||0--0--0-----0-----1--1--1--1-----0--0--0-----0-----1--1--1--1-----0--0--0----
                                                                               

                                                                               
------------------------------------------||
------------------------------------------||
------------------------------------------||
2--2--2--2--2-----2--2--2--2--2--2--2--2--||
2--2--2--2--2-----2--2--2--2--2--2--2--2--||
0--0--0--0--0-----0--0--0--0--0--0--0--0--||
                                                                               

                                                                               
||-----------------------------------------------------------------------------
||-----------------------------------------------------------------------------
||-----------------------------------------------------------------------------
||-----------------------------------------------------------------------------
||----------------------------------------------------7/8-----7/8-----7--------
||-0--0--0--0--0--0--0--0--0--0--0--0--0--0--0--0------------------------------
                                                                               

                                                                               
-------------------------------------------------------------------------------
-------------------------------------------------------------------------------
-------------------------------------------------------------------------------
-------------------------------------------------------------------------------
--------------------------------------------------7/8-----7/8-----7------------
0--0--0--0--0--0--0--0--0--0--0--0--0--0--0--0---------------------------------
                                                                               
[ Tab from: http://www.guitartabs.cc/tabs/m/metallica/damage_inc_tab_ver_3.html ]
                                                                               
-------------------------------------------------------------------------------
-------------------------------------------------------------------------------
-------------------------------------------------------------------------------
-------------------------------------------------------------------------------
--------------------------------------------------7/8-----7/8-----7------------
0--0--0--0--0--0--0--0--0--0--0--0--0--0--0--0---------------------------------
                                                                               

                                                                               
------------------------------------------------------------------||
------------------------------------------------------------------||
------------------------------------------------------------------||
--------------------------------------------------5\4-----5\4--5--||
--------------------------------------------------5\4-----5\4--5--||
2--2--2--2--2--2--2--2--2--2--2--2--2--2--2--2--------------------||
                                                                               

                                                                               
-------------------------------------------------------------------------------
-------------------------------------------------------------------------------
---4---------------------------------------------------------------------------
---4-----5-----7-----5-----4--4--4--4--4--4--4--4--4--4--4--4--4--4--4--4------
---2-----5-----7-----5-----4--4--4--4--4--4--4--4--4--4--4--4--4--4--4--4------
---------3-----5-----3-----2--2--2--2--2--2--2--2--2--2--2--2--2--2--2--2------
                                                                               

  Verse Riff
||---------------------------------------------------------------------------||
||---------------------------------------------------------------------------||
||---------------------------------------------------------------------------||
||-8\-----------------------8\---------------------8\---------------------8--||
||-8\-----------------------8\---------------------8\---------------------8--||
||-6\---0--0--0---0--0--0---6\-0--0--0---0--0--0---6\-0--0--0---0--0--0---6--||
                                                                               

  Chorus
||-----------------------------------------------------------------------------
||-----------------------------------------------------------------------------
||--4--------------------------------------------------------------------------
||--4-----5-----7-----5-----4--4--4--4--4--4--4--4--4--4--4--4--4--4--4--4-----
||--2-----5-----7-----5-----4--4--4--4--4--4--4--4--4--4--4--4--4--4--4--4-----
||--------3-----5-----3-----2--2--2--2--2--2--2--2--2--2--2--2--2--2--2--2-----
                               
Comments