Metallica - Damage Inc Chords & Tabs

 

Damage Inc Chords & Tabs

Metallica Chords & Tabs

Version: 2 Type: Tab 1 rating
1 star 2 stars 3 stars 4 stars 5 stars
comments

Damage Inc Tab

   
Damage Inc.

e -------------------------------------------
B -------------------------------------------
G -------------------------------------------
D -222--2--3333--222--2--3333--22222222-3333-
A -222--2--3333--222--2--3333--22222222-3333-
E -000--0--1111--000--0--1111--00000000-1111-

e -----------
B -----------
G -----------
D -22222222--
A -22222222--
E -00000000--

e -------------------------------------------
B -------------------------------------------
G -------------------------------------------
D -2------------------------7/8---7/8---7----
A -2------------------------7/8---7/8---7----
E -000000000000000000000000-----0-----0------

e -------------------------------------------
B -------------------------------------------
G -------------------------------------------
D -2------------------------7/8---7/8---7----
A -2------------------------7/8---7/8---7----
E -000000000000000000000000-----0-----0------

e -------------------------------------------
B -------------------------------------------
G -------------------------------------------
D -2------------------------7/8---7/8---7----
A -2------------------------7/8---7/8---7----
E -000000000000000000000000-----0-----0------

e -------------------------------------------
B -------------------------------------------
G -------------------------------------------
D -4------------------------5/4---5/4---5----
A -4------------------------5/4---5/4---5----
E -222222222222222222222222-----0-----0------

e -------------------------------------------
B -------------------------------------------
G -------------------------------------------
D -2------------------------7/8---7/8---7----
A -2------------------------7/8---7/8---7----
E -000000000000000000000000-----0-----0------

e -------------------------------------------
B -------------------------------------------
G -------------------------------------------
D -2------------------------7/8---7/8---7----
A -2------------------------7/8---7/8---7----
E -000000000000000000000000-----0-----0------

e -------------------------------------------
B -------------------------------------------
G -------------------------------------------
D -2------------------------7/8---7/8---7----
A -2------------------------7/8---7/8---7----
E -000000000000000000000000-----0-----0------

e -------------------------------------------
B -------------------------------------------
G -------------------------------------------
D -4------------------------5/4---5/4---5----
A -4------------------------5/4---5/4---5----
E -222222222222222222222222-----0-----0------

e -------------------------------------------
B -------------------------------------------
G --4----------------------------------------
D --4--5--7--5------------------------------4
A --2--5--7--5------------------------------4
E -----3--5--3-222222222222222222222222222222

e -------------------------------------------
B -------------------------------------------
G -------------------------------------------
D --8\5--------8\5--------8\5--------8\5-----
A --8\5--------8\5--------8\5--------8\5-----
E --6\3-000000-6\3-000000-6\3-000000-6\3-0000

e -------------------------------------------
B -------------------------------------------
G -------------------------------------------
D ----8\5--------8\5--------8\5--------8\5---
A ----8\5--------8\5--------8\5--------8\5---
E 000-6\3-000000-6\3-000000-6\3-000000-6\3-00

e -------
B -------
G -------
D -----8-
A -----8-
E 0000-6-

e -------------------------------------------
B -------------------------------------------
G -------------------------------------------
D -8\5----------8\5----------8\5----------8\3
A -8\5----------8\5----------8\5----------8\3
E -6\3-00000000-6\3-00000000-6\3-00000000-6\1

e -------------------------------------------
B -------------------------------------------
G -------------------------------------------
D ----------8\5---------8\5----------8\5-----
A ----------8\5---------8\5----------8\5-----
E -00000000-6\3-0000000-6\3-00000000-6\3-0000

e ---------------
B ---------------
G ---------------
D ---------------
A -----5555------
E 0000------6666-

e -------------------------------------------
B -------------------------------------------
G -------------------------------------------
D -8\5----------8\5----------8\5----------8\3
A -8\5----------8\5----------8\5----------8\3
E -6\3-00000000-6\3-00000000-6\3-00000000-6\1

e -------------------------------------------
B -------------------------------------------
G -------------------------------------------
D ----------8\5---------8\5----------8\5-----
A ----------8\5---------8\5----------8\5-----
E -00000000-6\3-0000000-6\3-00000000-6\3-0000

e ---------------
B ---------------
G ---------------
D ---------------
A -----5555------
E 0000------6666-

e ------------------------------------------
B ------------------------------------------
G -4----------------------------------------
D -4--5--7--5-------------------------------
A -2--5--7--5-------------------------------
E ----3--5--3--2222222222222222222222222222-

e ------------------------------------------
B ------------------------------------------
G -4----------------------------------------
D -4--5--7--5-------------------------------
A -2--5--7--5-------------------------------
E ----3--5--3--2222222222222222222222222222-

e -----------------------
B -----------------------
G -----------------------
D -222--2--3333--2222222-
A -222--2--3333--2222222-
E -000--0--1111--0000000-

e -------------------------------------------
B -------------------------------------------
G -------------------------------------------
D -8\5----------8\5----------8\5----------8\3
A -8\5----------8\5----------8\5----------8\3
E -6\3-00000000-6\3-00000000-6\3-00000000-6\1

e -------------------------------------------
B -------------------------------------------
G -------------------------------------------
D ----------8\5---------8\5----------8\5-----
A ----------8\5---------8\5----------8\5-----
E -00000000-6\3-0000000-6\3-00000000-6\3-0000

e ---------------
B ---------------
G ---------------
D ---------------
A -----5555------
E 0000------6666-

e -------------------------------------------
B -------------------------------------------
G -------------------------------------------
D -8\5----------8\5----------8\5----------8\3
A -8\5----------8\5----------8\5----------8\3
E -6\3-00000000-6\3-00000000-6\3-00000000-6\1

e -------------------------------------------
B -------------------------------------------
G -------------------------------------------
D ----------8\5---------8\5----------8\5-----
A ----------8\5---------8\5----------8\5-----
E -00000000-6\3-0000000-6\3-00000000-6\3-0000

e ---------------
B ---------------
G ---------------
D ---------------
A -----5555------
E 0000------6666-

e ------------------------------------------
B ------------------------------------------
G -4----------------------------------------
D -4--5--7--5-------------------------------
A -2--5--7--5-------------------------------
E ----3--5--3--2222222222222222222222222222-

e ------------------------------------------
B ------------------------------------------
G -4----------------------------------------
D -4--5--7--5-----------------------------4-
A -2--5--7--5-----------------------------4-
E ----3--5--3--222222222222222222222222---2-

e -----------------------
B -----------------------
G -----------------------
D -444444444444444444444-
A -444444444444444444444-
E -222222222222222222222-

e ------------------------------------------
B ------------------------------------------
G ------------------------------------------
D ------------------8\-------------------8\-
A ----77785-7778777--------77785-7778777----
E -00-------------------00------------------

e ------------------------------------------
B ------------------------------------------
G ------------------------------------------
D ------------------8\----------------------
A ----77785-7778777---------77785--77---55--
e -00-------------------00------------8----7
[ Tab from: http://www.guitartabs.cc/tabs/m/metallica/damage_inc_tab_ver_2.html ]
e ------------------------------------------
B ------------------------------------------
G ------------------------------------------
D ------------------8\-------------------8\-
A ----77785-7778777--------77785-7778777----
E -00-------------------00------------------

e ------------------------------------------
B ------------------------------------------
G ------------------------------------------
D ------------------8\----------------------
A ----77785-7778777---------77785--77---55--
e -00-------------------00------------8----7

e ------------------------------------------
B ------------------------------------------
G ------------------------------------------
D ------------------8\-------------------8\-
A ----77785-7778777--------77785-7778777----
E -00-------------------00------------------

e ------------------------------------------
B ------------------------------------------
G ------------------------------------------
D ------------------8\----------------------
A ----77785-7778777---------77785--77---55--
e -00-------------------00------------8----7

e ------------------------------------------
B ------------------------------------------
G ------------------------------------------
D ------------------8\-------------------8\-
A ----77785-7778777--------77785-7778777----
E -00-------------------00------------------

e ------------------------------------------
B ------------------------------------------
G ------------------------------------------
D ------------------8\----------------------
A ----77785-7778777---------77785--77---55--
E -00-------------------00------------8----7

e ------------------------------------------
B ------------------------------------------
G ------------------------------------------
D ------------------------------------------
A ------------------------------------------
E -00000000000000000000000000000000000000000

e ------------------------------------------
B ------------------------------------------
G ------------------------------------------
D ----------------------------------------2-
A ----------------------------------------2-
E 00000000000000000000000000000000000000000-

e ------------------------------------------
B ------------------------------------------
G ------------------------------------------
D ------------------------------------------
A ------------------------------------------
E -22222222222222222222222222222222222222222

e ------------------------------------------
B ------------------------------------------
G ------------------------------------------
D ------------------------------------------
A ------------------------------------------
E 22222222222222222222222222222222222222222-

e --------------
B --------------
G --------------
D -2--4/5/6/7/8-
A -2--4/5/6/7/8-
E -0--2/3/4/5/6-

e -------------------------------------------
B -------------------------------------------
G -------------------------------------------
D -2------------------------7/8---7/8---7----
A -2------------------------7/8---7/8---7----
E -000000000000000000000000-----0-----0------

e -------------------------------------------
B -------------------------------------------
G -------------------------------------------
D -2------------------------7/8---7/8---7----
A -2------------------------7/8---7/8---7----
E -000000000000000000000000-----0-----0------

e -------------------------------------------
B -------------------------------------------
G -------------------------------------------
D -2------------------------7/8---7/8---7----
A -2------------------------7/8---7/8---7----
E -000000000000000000000000-----0-----0------

e -------------------------------------------
B -------------------------------------------
G -------------------------------------------
D -4------------------------5/4---5/4---5----
A -4------------------------5/4---5/4---5----
E -222222222222222222222222-----0-----0------

e -------------------------------------------
B -------------------------------------------
G -------------------------------------------
D -2------------------------7/8---7/8---7----
A -2------------------------7/8---7/8---7----
E -000000000000000000000000-----0-----0------

e -------------------------------------------
B -------------------------------------------
G -------------------------------------------
D -2------------------------7/8---7/8---7----
A -2------------------------7/8---7/8---7----
E -000000000000000000000000-----0-----0------

e -------------------------------------------
B -------------------------------------------
G -------------------------------------------
D -2------------------------7/8---7/8---7----
A -2------------------------7/8---7/8---7----
E -000000000000000000000000-----0-----0------

e -------------------------------------------
B -------------------------------------------
G -------------------------------------------
D -4------------------------5/4---5/4---5----
A -4------------------------5/4---5/4---5----
E -222222222222222222222222-----0-----0------

e ------------------------------------------
B ------------------------------------------
G -4----------------------------------------
D -4--5--7--5-------------------------------
A -2--5--7--5-------------------------------
E ----3--5--3--2222222222222222222222222222-

e ------------------------------------------
B ------------------------------------------
G -4----------------------------------------
D -4--5--7--5-------------------------------
A -2--5--7--5-------------------------------
E ----3--5--3--2222222222222222222222222222-

e -------------------------------
B -------------------------------
G -------------------------------
D -2-444-4-555-5-666-6-777-7-888-
A -2-444-4-555-5-666-6-777-7-888-
E -0-222-2-333-3-444-4-555-5-666-

e ------------------------------------------
B ------------------------------------------
G ------------------------------------------
D ------------------8\-------------------9\-
A ----77785-7778777--------77785-7778777----
E -00-------------------00------------------

e ------------------------------------------
B ------------------------------------------
G ------------------------------------------
D ------------------8\----------------------
A ----77785-7778777---------77785--77---55--
e -00-------------------00------------8----7

e -------------------------------------------
B -------------------------------------------
G -------------------------------------------
D -8\5----------8\5----------8\5----------8\3
A -8\5----------8\5----------8\5----------8\3
E -6\3-00000000-6\3-00000000-6\3-00000000-6\1

e -------------------------------------------
B -------------------------------------------
G -------------------------------------------
D ----------8\5---------8\5----------8\5-----
A ----------8\5---------8\5----------8\5-----
E -00000000-6\3-0000000-6\3-00000000-6\3-0000

e ---------------
B ---------------
G ---------------
D ---------------
A -----5555------
E 0000------6666-

e -------------------------------------------
B -------------------------------------------
G -------------------------------------------
D -8\5----------8\5----------8\5----------8\3
A -8\5----------8\5----------8\5----------8\3
E -6\3-00000000-6\3-00000000-6\3-00000000-6\1

e -------------------------------------------
B -------------------------------------------
G -------------------------------------------
D ----------8\5---------8\5----------8\5-----
A ----------8\5---------8\5----------8\5-----
E -00000000-6\3-0000000-6\3-00000000-6\3-0000

e ---------------
B ---------------
G ---------------
D ---------------
A -----5555------
E 0000------6666-

e ------------------------------------------
B ------------------------------------------
G -4----------------------------------------
D -4--5--7--5-------------------------------
A -2--5--7--5-------------------------------
E ----3--5--3--2222222222222222222222222222-

e ------------------------------------------
B ------------------------------------------
G -4----------------------------------------
D -4--5--7--5-------------------------------
A -2--5--7--5-------------------------------
E ----3--5--3--2222222222222222222222222222-

e --------------
B --------------
G --------------
D -222-2-3333-2-
A -222-2-3333-2-
E -000-0-1111-0-
Comments