Metallica - Cunning Stunts Chords & Tabs

 

Cunning Stunts Chords & Tabs

Metallica Chords & Tabs

Version: 1 Type: Tab 0 ratings
1 star 2 stars 3 stars 4 stars 5 stars
comments

Cunning Stunts Tab

Cunning Stunts-Metallica

This is the guitar part in the bass and guitar doodle, I hope itís all right, it should be, 
so far itís the only copy of the song on this site, so take what you can get, eh?  
Anyways here it is.  Theres a special pedal that kirk uses in this song, it looks kinda 
like a wah, but I donít think it is.

~=use vibrato
*=use harmonics
/=bend to note
h=hammer on
p=pull off
E----------------------------------------------------------
B------------5------5------------5---5---------------------
G----------5----------7-5-~7----5-------7-5-~7-------------
D--7-----7-----~7-------------7----~7----------------------
A----------------------------------------------------------
E----------------------------------------------------------

E-~8---5------~8---5---------------------------------------
B--------5-----------------------5-------------------------
G----------5---------5-~7------5---------------------------
D-------------------------~7-------~7-----9-5--------------
A----------------------------------------------------------
E----------------------------------------------------------

E-----------------------85858585---------------------------
B-----------------------(trill)----------------------------
G--------7----------------------------~9-------------------
D--------7-------------------------------------------------
A---2-3ó-5/6/5/6----2-3------------2-----------------------
E-3---------------3-------------3----3---------------------
[ Tab from: http://www.guitartabs.cc/tabs/m/metallica/cunning_stunts_tab.html ]
E----------------------------------------------------------
B----------------------------------------------------------
G----------------------------------------------------------
D---------2---6---7---9---12---~14-------------------------
A-----2----------------------------------------------------
E-0--------------------------------------------------------



E-----*12-------3-3-h5-p3-p2------*12------2-2-h3-p2-p0----
B---------*12---0-0-------------------*12--0-0-------------
G----------------------------------------------------------
D----------------------------------------------------------
A----------------------------------------------------------
E-0-----------------------------0--------------------------

E---*12---------*12---------*7-------*12-*12-*12-----------
B-------*12---------*12--------*7----------------*12-------
G----------------------------------------------------*12---
D----------------------------------------------------------
A----------------------------------------------------------
E-0----------0-----------0---------0-----------------------

E---repeat this part 4x, then break into nothing else------
B-------------------------------------------------matters--
G-------0-------0-------0----------------------------------
D-----4-------5-------7-------0-----0----------------------
A---2-------3-------5-------4-----2-----2------------------
E-0-------0-------0-------5-----3-----2--------------------

Thatís it, itís the best I got, if thereís anything wrong please tell me Iím always 
looking to improve my tabs.
Comments