Metallica - Creeping Death Solo Chords & Tabs

 

Creeping Death Solo Chords & Tabs

Metallica Chords & Tabs

Version: 1 Type: Tab 1 rating
1 star 2 stars 3 stars 4 stars 5 stars
comments

Creeping Death Solo Tab

Metallica- Creeping Death solo


Lead up:(After 3rd chorus)
e----------------------------------------------------------------19p20h22-
B-12-13-15-17p15-13-14-15-17-19p17-15-15-17-19-17-19-20-19-20-22----------
G-------------------------------------------------------------------------
D-------------------------------------------------------------------------
A-------------------------------------------------------------------------
E-------------------------------------------------------------------------


Solo:(Good stuff)
-22b24-22b24-22b24-22b24p22-22b24r23r24-22-19-22-20-19\17-21-19-17\15-19-17-15\14-17-15-14\12-
----------------------------------------------------------------------------------------------
----------------------------------------------------------------------------------------------
----------------------------------------------------------------------------------------------
----------------------------------------------------------------------------------------------
----------------------------------------------------------------------------------------------


-15p14-----------------------------------------------------------------------------------------------------------
-------17p15-15p14p12h15-12\10-10-------------------10-15--15-12-------------------------------------------------
----------------------------------12b(14)r(13)b(14)----14b-14-12----12-14-14-14b(16)r14-14-12b(13)----12-14b(16)-
-----------------------------------------------------------------14--------------------------------14------------
-----------------------------------------------------------------------------------------------------------------
-----------------------------------------------------------------------------------------------------------------


------------------------------------------------------------12-15p12----12----------------------14-
-12-15p12-15p12-----12-15p12-15p12-----12-15p12-15p12-15b-r----------15----15-12-15p12----12-------
----------------14b----------------14b-------------------------------------------------14----14----
---------------------------------------------------------------------------------------------------
---------------------------------------------------------------------------------------------------
---------------------------------------------------------------------------------------------------


-17p15-14-15p14----14-------12-------------------------------------17-20/22~-22~-
----------------17----17p15----15p14-12-14-12-------------------18---------------
----------------------------------------------14-12----12-14/19------------------
----------------------------------------------------14---------------------------
---------------------------------------------------------------------------------
---------------------------------------------------------------------------------



-------12-17p12-------------12-17p12-------------12-17p12----------------12-17p12----12h15p12-----------------------------
----13----------13-------13----------13-------13----------13----------13----------13----------15-12----12-15p12-----------
-14----------------14-14----------------14-14----------------14-14-14-------------------------------14----------14-12---12
----------------------------------------------------------------------------------------------------------------------14--
--------------------------------------------------------------------------------------------------------------------------
--------------------------------------------------------------------------------------------------------------------------


----------------------------
-15--15--15-----------\-----
-14b-14b-14b-14b(16)14\-----
----------------------------
----------------------------
----------------------------

[ Tab from: http://www.guitartabs.cc/tabs/m/metallica/creeping_death_solo_tab.html ]
-------------------------------------------------------------------------------------------------------------------
-------------------------------------------------------------------------------------------------------------------
-------------------------------------------------------------------------------------------------------------------
----------------------------------------------------------------------------------------------------------------11-
-7-7-7-8-8-8-8-9-9-9-9-9-9-9-9-10-9-10-9-10-9-11-10-12-11-12-11-12-11-13-12-14-13-14-13-14-14-15-15-14-14-14-15----
-------------------------------------------------------------------------------------------------------------------


----------------------------------------------------------------------------------------14-17p14-----------------------------------
----------------------------------------------------------------------14-17-14----14-17----------14b(17)14----14-17p14-------------
-------------------------------------------------12/14-17-14-13-14-16----------16--------------------------16----------16-14----14-
-11-12-11-12-11-12-12-12-12-13-12-13-15-15-15-15-----------------------------------------------------------------------------16----
-----------------------------------------------------------------------------------------------------------------------------------
-----------------------------------------------------------------------------------------------------------------------------------


---------------------------------------------------------------------------------------------------------------------------
------------------------------------------------------------------------------------------------------------------12-13-15-
-16p14----14--------------------------------------------------------------11-12-14----12-11h12p11--------11-12-14----------
-------16----16p14-16p14----14-------------------------------12-12-14--14--------------------------12--14------------------
-------------------------16----16-14-16p14-12-14p12----12-14---------------------------------------------------------------
----------------------------------------------------14---------------------------------------------------------------------


-12------12/14-15-17----15--14-----\17-17-19-20-19-17-15-14h15-15p14p12-15p14p12-15p14p12-15p14p12--
--------------------------------17------------------------------------------------------------------
----------------------------------------------------------------------------------------------------
----------------------------------------------------------------------------------------------------
----------------------------------------------------------------------------------------------------
----------------------------------------------------------------------------------------------------


-15p14p12-15p14p12-15p14p12-15-12/14--17p15p14-17p15p14-17p15p14-17p15p14-17p15p14-17p15p14-17p15p14-17-15-15--
---------------------------------------------------------------------------------------------------------------
---------------------------------------------------------------------------------------------------------------
---------------------------------------------------------------------------------------------------------------
---------------------------------------------------------------------------------------------------------------
---------------------------------------------------------------------------------------------------------------


-19p17p15-19p17p15-19p17p15-19-15-16-20p19p17-20p19p17-22p20p19-22p20p19---22b(24)----22b(24)----22b(24)----22b(24)~--22b(24)~~--------
---------------------------------------------------------------------------------------------------------------------------------------
---------------------------------------------------------------------------------------------------------------------------------------
---------------------------------------------------------------------------------------------------------------------------------14\\--
---------------------------------------------------------------------------------------------------------------------------------14\\--
---------------------------------------------------------------------------------------------------------------------------------12\\--


Goobye now. Good stuuff. I like edam cheese mmmmmmmmmmmmmmmmmmmmmmmmmmmmmmmmmmmmmmm.
Comments