Metallica - Charlie Brown Theme Chords & Tabs

 

Charlie Brown Theme Chords & Tabs

Metallica Chords & Tabs

Version: 1 Type: Bass Tab 0 ratings
1 star 2 stars 3 stars 4 stars 5 stars
comments

Charlie Brown Theme Bass Tab

Band:Metallica
Song: Linus and Lucy
Performed in Gothenburg Sweden 2/13/87
Tabbed by Fernando Saavedra (hiv_k@hotmail.com)


INTRO

G----------------------------------------------------------|
D----------------------------------------------------------|
A----------------------------------------------------------|
E--0-2-3-0-2-3--0-3-5-0-3-5--0-2-3-0-2-3--0-3-5-0-3-5------|
[ Tab from: http://www.guitartabs.cc/tabs/m/metallica/charlie_brown_theme_btab.html ]
G----------------------------------------------------------|
D------2-----2--2---2--------------------------------------|
A--2-5---2-5------5---5-3-2--------------------------------|
E-----------------------------0--0-------------------------|

G----------------------------------------------------------|
D----------------------------------------------------------|
A--0-0-0-2-2-----0-0-0-2-2---------------------------------|
E----------------------------------------------------------|

THATS ALL...COMENTS OR CORRECTIONS SEND IT TO hiv_k@hotmail.com
Comments