Metallica - Call Of Ktulu Chords & Tabs

 

Call Of Ktulu Chords & Tabs

Metallica Chords & Tabs

Version: 1 Type: Bass Tab 0 ratings
1 star 2 stars 3 stars 4 stars 5 stars
comments

Call Of Ktulu Bass Tab

   
        		    
Metallica - The Call of Ktulu
BASS TAB




                        -Rest for 32 bars				
    G|-----------------|-----------------|-----------------|-----------------|
    D|----Intro--------|-----------------|-----------------|-----------------|
    A|----Guitar-------|-----------------|-----------------|-----------------|
    E|-----------------|-----------------|-----------------|-----------------|

                                        Play 4 times                            Play 4 times
    G|------------------|------------------|------------------|------------------|
    D|o-----------------|-----------------o|o-----------------|-----------------o|
    A|o-0------------7--|-6----------(6)\-o|o-----Rest--------|-5---------------o|
    E|------------------|------------------|------------------|------------------|

    G|-----------------|-----------------|
    D|-----------------|-----------------|
    A|-5-5-5-5-5-5-5-5-|-5-5-5-5-5-5-5-5-|
    E|-----------------|-----------------|
        
        Bass Solo 
        With Distortion and Wah (o = wah open bass + = wah closed treble)
        Solo played 4 times.  First 13 bars are played each time with 4 different 
        endings.  These 13 bars vary slightly each time but you don't really 
        notice the differences as the Bass is very quiet in the mix but it can 
        be heard if you really listen hard for it, especially the distinctive
        distorted wah accenting the power chords, giving the instrumental an eiere
        groove.
 

1:29    1st time
1:57    2nd time
2:24    3rd time
2:52    4th time                                                                        
         o                                                        +       o     
G|------------------|-----------------|---------9-9-9---|-----------------|
D|o-------5-7-5-7---|-----------------|---------7-7-7---|-----------------|
A|o-0-0-0---------7-|-6-6-6-6-6-7-----|-0-0-0---0-0-0-7-|-6-6-6-6-6-6-6-7\|
E|------------------|-------------8-7-|-----------------|-----------------|
         o                                                        +       o     
G|-----------------|-----------------|------------------|-----------------|
D|-------5-7-5-7---|-----------------|-------5-7--(7)\--|-----------------|
A|-0-0-0---------7-|-6-6-6-6-6-7-----|-0-0-0---0------7-|-6-6-6-6-6-6-6-7\|
E|-----------------|-------------8-7-|------------------|-----------------|

    G|---------------------|-10-10-10-10-12-12-12-12-|---------------------|
    D|-0-0-0-0-12-12-12-12-|-------------------------|-0-0-0-0-12-12-12-12-|
    A|---------------------|-------------------------|---------------------|
    E|---------------------|-------------------------|---------------------|
                    +        o  
    G|------10---10-10-10---|---------------------|
    D|-12--------12-12-12---|-0-0-0-0-12-12-12-12-|
    A|----------------------|---------------------|
    E|----------------------|---------------------|
        1st ending
          o
    G|-10---12---14---12-14-|-15-14-12h14p12-14h15p14-12h14p15-|
    D|----------------------|----------------------------------|
    A|----------------------|----------------------------------|
    E|----------------------|----------------------------------|

    G|-14h15p14-12h14p14-15-14-12-14\--|
    D|--------------------------------o|
    A|--------------------------------o|
    E|---------------------------------|
        
        2nd ending
         o                              +
    G|-10---12---14---12-14-|-12-17-15-14----15-14----|
    D|----------------------|-------------17-------17-|
    A|----------------------|-------------------------|
    E|----------------------|-------------------------|

    G|----14h15p14-------14h15p14-----|
    D|-17----------17-17----------17-o|
    A|-------------------------------o|
    E|--------------------------------|
  
        3rd ending
         o                              +
G|-10----12---14--------|----------------12-14-12-|-14-12-15-14-17-15-17-19\--|
D|----------------------|-12-14-15-12-15----------|--------------------------o|
A|----------------------|-------------------------|--------------------------o|
E|----------------------|-------------------------|---------------------------|
        
        4th ending
         o                                 +                                gradual bend /      
G|-------------------------|-14-14-14-14-10-10-10-10-|-12-12-12-12-12-12-12-12-|
D|-12-12-12-12-12-12-12-12-|-------------------------|-------------------------|
A|-------------------------|-------------------------|-------------------------|
E|-------------------------|-------------------------|-------------------------|


3:20    Wah and distortion off  - Play 4 times
G|------------------|-----------------|-----------------|------------------|
D|o-----------------|-----------------|-----------------|-----------------o|
A|o---------0---2-3-|---------0--2--3-|---------0---2-3-|-5-------3--2----o|
E|--0-0-0-0---0-----|-1-1-1-1---------|-2-2-2-2---0-----|---3-3-3-------3--|

                        
     - Play 2 times
G|------------------|-----------------|-----------------|------------------|
D|o-----------------|-----------------|-----------------|-----------------o|
A|o---------3---5-6-|---------3--5--6-|---------3---5-6-|-8-------6--5----o|
E|--3-3-3-3---3-----|-4-4-4-4---------|-5-5-5-5---5-----|---6-6-6-------6--|

	 
        Guitar Solo
4:01    Wah and distortion off - Play 2 times
         o                                                        +       o     
G|------------------|-----------------|------------------|------------------|
D|o-------5-7-5-7---|-----------------|-------5-7--(7)\--|-----------------o|
A|o-0-0-0---------7-|-6-6-6-6-6-7-----|-0-0-0---0------7-|-6-6-6-6-6-6-6-7\o|
E|------------------|-------------8-7-|------------------|------------------|


[ Tab from: http://www.guitartabs.cc/tabs/m/metallica/call_of_ktulu_btab.html ]
    - Play 4 times
G|---------------------|---------------------------|-------------------------|
D|-0-0-0-0-12-12-12-12-|o-12-12-12-12-12-12-12-12-o|-12-12-14-14-15-15-14-14-|
A|---------------------|o-------------------------o|-------------------------|
E|---------------------|---------------------------|-------------------------|

    G|---------------------------|
    D|o-12-12-12-12-12-12-12-12-o|
    A|o-------------------------o|
    E|---------------------------|


4:28                           - Play 2 times
         o                                                        +       o     
G|------------------|-----------------|------------------|------------------|
D|o-------5-7-5-7---|-----------------|-------5-7--(7)\--|-----------------o|
A|o-0-0-0---------7-|-6-6-6-6-6-7-----|-0-0-0---0------7-|-6-6-6-6-6-6-6-7\o|
E|------------------|-------------8-7-|------------------|------------------|

      

       o                       - Play 7 times
    G|---------------------|---------------------------|
    D|-0-0-0-0-12-12-12-12-|o-12-12-12-12-12-12-12-12-o|
    A|---------------------|o-------------------------o|
    E|---------------------|---------------------------|



4:56                           - Play 2 times
         o                                                      +         o                 +    o
G|------------------|-----------------|-----------------|------------------|
D|o-------5-7-5-7---|-----------------|-------5-7-5-7---|-----------------o|
A|o-0-0-0---------7-|-6-6-6-6-6-7-----|-0-0-0---------7-|-6-6-6-6-6-6-7-7\o|
E|------------------|-------------8-7-|-----------------|------------------|

                                               
    - Play 2 times
    G|----------------------|--------------------------|
    D|o-0-0-0-0-12-12-12-12-|-13-13-14-14-15-15-15-15-o|
    A|o---------------------|-------------------------o|
    E|----------------------|--------------------------|

    G|---------------------|-------------12----------|
    D|-0-0-0-0-12-12-12-12-|-14-14-15-15-------------|
    A|---------------------|-------------------------|
    E|---------------------|-------------------------|

    G|-12-14---12-14---12-14---12-14---12-14---12-|
    D|--------------------------------------------|
    A|--------------------------------------------|
    E|--------------------------------------------|
 
    G|-14---12-14---12-14---12-14---12-14---------|
    D|--------------------------------------------|
    A|--------------------------------------------|
    E|--------------------------------------------|

 
       Wah and Distortion off  
5:23                              Play 4 times   5:37                       Play 4 times
                                       |                                     |
G|------------------|------------------|------------------|------------------|
D|o-----------------|-----------------o|o-----------------|-----------------o|
A|o-0-------0---2-3-|-0-------0--2--3-o|o-2-------2---4-5-|-2-------2--4--5-o|
E|----0-0-0---0-----|---1-1-1----------|----2-2-2---2-----|---3-3-3----------|


5:50                              Play 3 times   6:01                       Play 3 times                
                                       |                                     |
G|------------------|------------------|------------------|------------------|
D|o-----------------|-----------------o|o-----------------|-----------------o|
A|o-3-------3---5-6-|-3-------3--5--6-o|o-5-------5---7-8-|-5-------5--7--8-o|
E|----3-3-3---3-----|---4-4-4----------|----5-5-5---5-----|---6-6-6----------|


6:11                               Play 8 times                             Play 3 times
                                       |                                     |
G|------------------|------------------|--7------7--------|------------------|
D|o-----------------|-----------------o|o-----------------|-0---------------o|
A|o-0-------------7-|-6---------------o|o-----------------|-----------------o|
E|------------------|------------------|------------------|------------------|

    G|-7------7--------|-----------------|-----------------|
    D|-----------------|-0---------------|-----------------|
    A|-----------------|-----------------|-----------------|
    E|-----------------|--------0--------|-(0)-------------|



6:56                            - Play 7 times

G|------------------|-----------------|-----------------|------------------|
D|o-----------------|-----------------|-----------------|-----------------o|
A|o-----------------|-----7---7-------|-----------------|-----7-----------o|
E|--3-2-2-2----3----|-0-------0-------|-3-2-2-2----3----|-0---0------------|

    G|-----------------|-----------------|-----------------|-----------------|
    D|-----------------|-----------------|-----------------|-----------------|
    A|-----------------|-----7---7-------|-----------------|-----------------|
    E|-3-2-2-2----3----|-0-------0-------|-3-2-2-2----3----|-0---0-------2-2-|

    G|-----------------|-----------------|
    D|-----------------|-----------------|
    A|-----5-5---------|-(5)-------------|
    E|-(2)-------------|-----------------|

        
          Guitar for 15 bars      Drum Fill
7:56      rest for 15 bars      
    G|------------------|-----------------|
    D|o----------------o|-----------------|
    A|o----------------o|-----------------|
    E|------------------|-----------------|

Slower  90 bpm
                                                       3 /4 Time for this bar only
    G|-----------------|-----------------|-----------------|-----------------|
    D|-----------------|-----------------|-----------------|-----------------|
    A|-5---3---5---1---|-5---8---5-------|-(5)-------------|-5---3---5---1---|
    E|-----------------|-----------------|-----------------|-----------------|

                                Slower 72 bpm
                                
    G|-----------------|-12\10/12/14\12/14/15\14/15/17\15/17/-|-19--------------|
    D|-----------------|--------------------------------------|-----------------|
    A|-5---8---5-------|--------------------------------------|--------17\------|
    E|-----------------|--------------------------------------|-----------------|


Well thats pretty much it. If you have any questions or comments
e-mail me at nikeman@optonline.net
Comments