Metallica - Blitzkrieg Chords & Tabs

 

Blitzkrieg Chords & Tabs

Metallica Chords & Tabs

Version: 1 Type: Tab 1 rating
1 star 2 stars 3 stars 4 stars 5 stars
comments

Blitzkrieg Tab

   
#----------------------------------PLEASE NOTE---------------------------------#
#This file is the author's own work and represents their interpretation of the #
#song. You may only use this file for private study, scholarship, or research. #
#------------------------------------------------------------------------------##


Title:          Blitzkrieg
Band:           Metallica
Album:          Garage Inc.
Words:          Ian Jones, Brian Ross and Jim Sirotto
Music:          Ian Jones, Brian Ross and Jim Sirotto
Tempo:          192, Fast Rock
Transcribed By: "DaMatrix"
My Email:       robertleeuwestein@yahoo.com 
Original site:  http://continue.to/MetallicaTabs
                (check for more quality tabs, and scanned tabs)
Last edit:      24-Jan-2001
Parts:          Just play everything 'downstairs'
Missing:        Nothing
Other tabs 	
made by me:     Metallica - Am I Evil
                Metallica - Enter Sandman
                Metallica - For Whom The Bell Tolls
                Metallica - Free Speech For The Dumb
                Metallica - Motorbreath
                Metallica - Orion
                Metallica - So What
                Metallica - The Unforgiven
                Metallica - Wiskey In The Jar


What I can say about this song? Oh, yeah, one thing. The part in solo with the trem. bar.
It's really hard to tab that, but I have done my best.

If you want to add this tab on your site then please leave the tab as it is. If you are not sure
that you have the orginal tab mail me. Also, if somebody is using my tab then please mail me.
You can always get the newest verion of the tab at my website.

If you see any white lines between the guitar lines, then make sure you resolution is 
1024 x 768 or greater and that you are using Notepad.

Well, let's play this song.



 4/4
  Gtr I
            PM|   PM      PM|   PM    PM|
  E E   E E E E E E E E   E E E E E E E E
|-----|-----------------|-----------------|
|-----|-----------------|-----------------|
|-----|-----------------|-----------------|
|-7---|-7S9-----9---7S9-|-----9---7S9-----|
|-5---|-5S7-----7---5S7-|-----7---5S7-----|
|-----|-----0-0---0-----|-0-0---0-----0-0-|


                  2/4
          PM|      PM|
  E E  Q  E E Q    E E E E
|----------------|---------|
|----------------|---------|
|----------------|---------|
|----------------|-----7---|
|-9---10------7--|-----5---|
|-7----8--0-0-5--|-0-0-----|


   4/4
    Gtrs I, II
        PM|   PM      PM|   PM    PM|
    E E E E E E E E   E E E E E E E E
||------------------|-----------------|
||o-----------------|-----------------|
||------------------|-----------------|
||--7S9-----9---7S9-|-----9---7S9-----|
||o-5S7-----7---5S7-|-----7---5S7-----|
||------0-0---0-----|-0-0---0-----0-0-|


                  2/4
  Gtrs I, II
          PM|      PM|
  E E  Q  E E Q    E E E E  4x
|----------------|----------||
|----------------|---------o||
|----------------|----------||
|----------------|-----7----||
|-9---10------7--|-----5---o||
|-7----8--0-0-5--|-0-0------||


 4/4
  Gtrs I, II
      PM|   PM      PM|   PM    PM|
  E E E E E E E E   E E E E E E E E
|-----------------|-----------------|
|-----------------|-----------------|
|-----------------|-----------------|
|-7S9-----9---7S9-|-----9---7S9-----|
|-5S7-----7---5S7-|-----7---5S7-----|
|-----0-0---0-----|-0-0---0-----0-0-|


                  2/4
  Gtrs I, II
          PM|      PM|
  E E  Q  E E Q    E E  Q
|----------------|----------|
|----------------|----------|
|----------------|----------|
|----------------|----------|
|-9---10------7--|----------|
|-7----8--0-0-5--|-0-0-12\--|


   4/4
    Gtrs I, II
    PM--------------------------|
    E E E E E E E E   E E E E E E E E  3x
||------------------|------------------||
||o-----------------|-----------------o||
||------------------|------------------||
||------------------|------------------||
||o-----------------|-----------------o||
||--0-0-2-0-0-3-0-0-|-2-0-0-3-0-0-2S3--||


  Gtrs I, II
  PM--------------------------|
  E E E E E E E E   E E E E E E E E
|-----------------|-----------------|
|-----------------|-----------------|
|-----------------|-----------------|
|-----------------|-------------5S4-|
|-----------------|-------------3S2-|
|-0-0-2-0-0-3-0-0-|-2-0-0-3-0-0-----|


    Gtrs I, II
    PM--------------------------|
    E E E E E E E E   E E E E E E E E
||------------------|-----------------|
||o-----------------|-----------------|
||------------------|-----------------|
||------------------|-----------------|
||o-----------------|-----------------|-
||--0-0-2-0-0-3-0-0-|-2-0-0-3-0-0-2S3-|


  Gtrs I, II
  PM--------------------------|
  E E E E E E E E   E E E E E E E E
|-----------------|------------------||
|-----------------|-----------------o||
|-----------------|------------------||
|-----------------|-------------5S4--||
|-----------------|-------------3S2-o||
|-0-0-2-0-0-3-0-0-|-2-0-0-3-0-0------||


    Gtrs I, II
                         PM|
    Q  Q  E E E E   +Q   E E E E Q
||----------------|-----------------|
||o---------------|-----------------|
||----------------|-----------------|
||--2--2--x-5S4-5-|-(5)------4S5-4--|
||o-0--0--x-3S2-3-|-(3)--3-3-2S3-2--|
||----------------|-----------------|


  Gtrs I, II
                       PM|
  Q  Q  E E E E   +Q   E E E E Q
|---------------|------------------||
|---------------|-----------------o||
|---------------|------------------||
|-2--2--x-5S4-5-|-(5)------4S5-7---||
|-0--0--x-3S2-3-|-(3)--3-3-2S3-5--o||
|---------------|------------------||


    Gtrs I, II
        PM|   PM      PM|   PM    PM|
    E E E E E E E E   E E E E E E E E
||------------------|-----------------|
||o-----------------|-----------------|
||------------------|-----------------|
||--7S9-----9---7S9-|-----9---7S9-----|
||o-5S7-----7---5S7-|-----7---5S7-----|
||------0-0---0-----|-0-0---0-----0-0-|


                  2/4
  Gtrs I, II
          PM|      PM|
  E E  Q  E E Q    E E E E  3x
|----------------|----------||
|----------------|---------o||
|----------------|----------||
|----------------|-----7----||
|-9---10------7--|-----5---o||
|-7----8--0-0-5--|-0-0------||


  Gtrs I, II
      PM|   PM      PM|   PM    PM|
  E E E E E E E E   E E E E E E E E
|-----------------|-----------------|
|-----------------|-----------------|
|-----------------|-----------------|
|-7S9-----9---7S9-|-----9---7S9-----|
|-5S7-----7---5S7-|-----7---5S7-----|
|-----0-0---0-----|-0-0---0-----0-0-|


                  2/4
  Gtrs I, II
          PM|      PM|
  E E  Q  E E Q    E E Q
|----------------|---------|
|----------------|---------|
|----------------|---------|
|----------------|---------|
|-9---10------7--|-----9\--|
|-7----8--0-0-5--|-0-0-7\--|


    Gtrs I, II
    PM--------------------------|
    E E E E E E E E   E E E E E E E E  3x
||------------------|------------------||
||o-----------------|-----------------o||
||------------------|------------------||
||------------------|------------------||
||o-----------------|-----------------o||
||--0-0-2-0-0-3-0-0-|-2-0-0-3-0-0-2S3--||


  Gtrs I, II
  PM--------------------------|
  E E E E E E E E   E E E E E E E E
|-----------------|-----------------|
|-----------------|-----------------|
|-----------------|-----------------|
|-----------------|-------------5S4-|
|-----------------|-------------3S2-|
|-0-0-2-0-0-3-0-0-|-2-0-0-3-0-0-----|


    Gtrs I, II
    PM--------------------------|
    E E E E E E E E   E E E E E E E E
||------------------|-----------------|
||o-----------------|-----------------|
||------------------|-----------------|
||------------------|-----------------|
||o-----------------|-----------------|
||--0-0-2-0-0-3-0-0-|-2-0-0-3-0-0-2S3-|


  Gtrs I, II
  PM--------------------------|
  E E E E E E E E   E E E E E E E E
|-----------------|------------------||
|-----------------|-----------------o||
|-----------------|------------------||
|-----------------|-------------5S4--||
|-----------------|-------------3S2-o||
|-0-0-2-0-0-3-0-0-|-2-0-0-3-0-0------||


    Gtrs I, II
                         PM|
    Q  Q  E E E E   +Q   E E E E Q
||----------------|-----------------|
||o---------------|-----------------|
||----------------|-----------------|
||--2--2--x-5S4-5-|-(5)------4S5-4--|
||o-0--0--x-3S2-3-|-(3)--3-3-2S3-2--|
||----------------|-----------------|


  Gtrs I, II
                       PM|
  Q  Q  E E E E   +Q   E E E E Q
|---------------|------------------||
|---------------|-----------------o||
|---------------|------------------||
|-2--2--x-5S4-5-|-(5)------4S5-7---||
|-0--0--x-3S2-3-|-(3)--3-3-2S3-5--o||
|---------------|------------------||


    Gtrs I, II
        PM|   PM      PM|   PM    PM|
    E E E E E E E E   E E E E E E E E
||------------------|-----------------|
||o-----------------|-----------------|
||------------------|-----------------|
||--7S9-----9---7S9-|-----9---7S9-----|
||o-5S7-----7---5S7-|-----7---5S7-----|
||------0-0---0-----|-0-0---0-----0-0-|


                  2/4
  Gtrs I, II
          PM|      PM|
  E E  Q  E E Q    E E E E
|----------------|----------||
|----------------|---------o||
|----------------|----------||
|----------------|-----7----||
|-9---10------7--|-----5---o||
|-7----8--0-0-5--|-0-0------||


 4/4
  Gtrs I, II
  PM--------------------------------------------|
  E E E E E E E E                 E E E E E E E E
|-------------------------------|-------------------------|
|-------------------------------|-------------------------|
|-------------------------------|-------------------------|
|-------------------------------|-------------------------|
|-4-4-4-4-4-4-4-4---------------|-4-4-4-4-4-4-4-4---------|
|-2-2-2-2-2-2-2-2---------------|-2-2-2-2-2-2-2-2---------|
|
|
| Gtr III
|                                             |-3-| |-3-|
| S S S S S S S S S S S S E S S   E S S E S S E E E E E E
|-------------------------------|-------------------------|
|-------------------------------|-------------------2---2-|
|-------------------------------|-------2---2-4-2-4---4---|
|-------------------------2---2-|-4-2-4---4---------------|
|---------------2-4---2-4---4---|-------------------------|
|-2-2-2-2-5-2-5-----5-----------|-------------------------|


  Gtrs I, II
  PM--------------------------------------------|
  E E E E E E E E                 E E E E E E E E
|-------------------------------|------------------|
|-------------------------------|------------------|
|-------------------------------|------------------|
|-------------------------------|------------------|
|-4-4-4-4-4-4-4-4---------------|-4-4-4-4-4-4-4-4--|
|-2-2-2-2-2-2-2-2---------------|-2-2-2-2-2-2-2-2--|
|
|
| Gtr III
| S S E S S S S S S S S S S S S   E E E E E Q    E
|-------2-----2-5p2-------------|-2----------------|
|-5-2-5---5-2-------5-2-2-2-2-5-|-2----------------|
|---------------------2-2-2-2---|---4-2---2-4b6--2-|
|-------------------------------|-------5----------|
|-------------------------------|------------------|
|-------------------------------|------------------|


  Gtrs I, II
  PM--------------------------------------------|
  E E E E E E E E                 E E E E E E E E
|-------------------------------|-----------------------|
|-------------------------------|-----------------------|
|-------------------------------|-----------------------|
|-------------------------------|-----------------------|
|-4-4-4-4-4-4-4-4---------------|-4-4-4-4-4-4-4-4-------|
|-2-2-2-2-2-2-2-2---------------|-2-2-2-2-2-2-2-2-------|
|
|
| Gtr III
|                                         |-3-|   |-3-|
| Q     +S  +S     +E  +Q   E E   E E E E S S S E E E E
|-------------------------------|-----------------------|
|-5b7===(5)r(5)b7==(5)-(5)--5-3-|-2---2-3-2h3p2---2-4---|
|-------------------------------|---4-----------4---4-2-|
|-------------------------------|-----------------------|
|-------------------------------|-----------------------|
|-------------------------------|-----------------------|


  Gtrs I, II
  PM------------------------------------|
  E E E E E E E E         E E E E E E E E
|-----------------------|--------------------|
|-----------------------|--------------------|
|-----------------------|--------------------|
|-----------------------|--------------------|
|-4-4-4-4-4-4-4-4-------|-4-4-4-4-4-4-4-4----|
|-2-2-2-2-2-2-2-2-------|-2-2-2-2-2-2-2-2----|
|
|
| Gtr III
| |-3-| |-3-|
| E E E E E E S S E E E   S S E E E Q  E S S
|-----------------------|------------------4-|
|-----------------------|----------------7---|
|-4p2---2---------------|--------------------|
|-----4---4-2-4p2---2-4-|--------------------|
|-----------------4-----|-4p2---2-4-2--------|
|-----------------------|-----4--------2-----|


  Gtrs I, II
  PM--------------------------------------|
  E E E E E E E E           E E E E E E E E
|-------------------------|-------------------------|
|-------------------------|-------------------------|
|-------------------------|-------------------------|
|-------------------------|-------------------------|
|-6-6-6-6-6-6-6-6---------|-6-6-6-6-6-6-6-6---------|
|-4-4-4-4-4-4-4-4---------|-4-4-4-4-4-4-4-4---------|
|
|
| Gtr III
| |-3-| |-3-| |-3-| |-3-|   |-3-| |-3-| |-3-| |-3-|
| E E E E E E E E E E E E   E E E E E E E E E E E E
|-7p4---4-----------------|-------------------------|
|-----7---7-4-7p4---4-----|-------------------------|
|-----------------6---6-4-|-6p4---4-----------------|
|-------------------------|-----6---6-4-6p4---4-----|
|-------------------------|-----------------6---6-4-|
|-------------------------|-------------------------|

[ Tab from: http://www.guitartabs.cc/tabs/m/metallica/blitzkrieg_tab.html ]
  Gtrs I, II
  PM---------------------------------|
  E E E E E E E E      E E E E E E E E
|--------------------|---------------------|
|--------------------|---------------------|
|--------------------|---------------------|
|--------------------|---------------------|
|-6-6-6-6-6-6-6-6----|-6-6-6-6-6-6-6-6-----|
|-4-4-4-4-4-4-4-4----|-4-4-4-4-4-4-4-4-----|
|
|
| Gtr III
| |-3-| |-3-|
| E E E E E E E E Q    E E E E +E  S S E E
|--------------------|---------------------|
|--------------------|---------------------|
|--------------------|-----4-------------4-|
|--------------------|-4h6---6-(6)-6p4-----|
|-6p4---4-------4S6--|-----------------6---|
|-----7---7-4-7------|---------------------|


  Gtrs I, II
  PM------------|
  E E E E E E E E
|---------------------------------|
|---------------------------------|
|---------------------------------|
|---------------------------------|
|-6-6-6-6-6-6-6-6-----------------|
|-4-4-4-4-4-4-4-4-----------------|
|
|
| Gtr III
| S S S S S S S S S S S S S S S S
|---------------------------------|
|---------------------------------|
|-6-6-6-6-7-7-7-7S9-9-9-9-7-7-7S9-|
|---------------------------------|
|---------------------------------|
|---------------------------------|


  Gtrs I, II
  PM------------|
  E E E E E E E E
|---------------------------------------------|
|---------------------------------------------|
|---------------------------------------------|
|---------------------------------------------|
|-6-6-6-6-6-6-6-6-----------------------------|
|-4-4-4-4-4-4-4-4-----------------------------|
|
|
| Gtr III
| S S S S  S  S  S  S  S  S  S  S  S  S  S  S
|---------------------------------------------|
|---------------------------------------------|
|-9-9-9-9-11-11-11-11-13-13-13-13-11-11-11-13-|
|---------------------------------------------|
|---------------------------------------------|
|---------------------------------------------|


  Gtrs I, II
  PM-----------------------------------------------------------|
  E E E E E E E E                                E E E E E E E E
|----------------------------------------------|-------------------------------|
|----------------------------------------------|-------------------------------|
|----------------------------------------------|-------------------------------|
|----------------------------------------------|-------------------------------|
|-6-6-6-6-6-6-6-6------------------------------|-6-6-6-6-6-6-6-6---------------|
|-4-4-4-4-4-4-4-4------------------------------|-4-4-4-4-4-4-4-4---------------|
|
|
| Gtr III
|  S  S  S  S  S  S  S  S  S  S  S  S  S  S  E    S  S  E  a  E  E  Q      Q
|----------------------------------------------|-------------------------------|
|----------------------------------------------|----------------16-19b21-------|
|-13-13-13-13-14-14-14-14S16-16-16-16-14-14-16-|-18p16----16h18-----------16\--|
|----------------------------------------------|-------18-----------------16\--|
|----------------------------------------------|-------------------------------|
|----------------------------------------------|-------------------------------|


  Gtrs I, II
  E E E E E E E E   E E E E E E E E
|-----------------|------------------|
|-----------------|------------------|
|-----------------|------------------|
|-----------------|------------------|
|-8-8-8-8-8-8-8-8-|-8-8-8-8-8-8-8-8--|
|-6-6-6-6-6-6-6-6-|-6-6-6-6-6-6-6-6--|
|
|
| Gtr III
| Q  Q  E E E E     +E  E Q  E E E E
|-----------------|------------------|
|-----------------|------------------|
|-----------------|------------------|
|-----------------|----------6---6-7-|
|-------4---4-5---|-(5)-6-8----8-----|
|-6--6----6-------|------------------|


  Gtrs I, II
  E E E E E E E E       E E E E E E E E
|---------------------|---------------------------|
|---------------------|---------------------------|
|---------------------|---------------------------|
|---------------------|---------------------------|
|-8-8-8-8-8-8-8-8-----|-8-8-8-8-8-8-8-8-----------|
|-6-6-6-6-6-6-6-6-----|-6-6-6-6-6-6-6-6-----------|
|
|
| Gtr III
|  E  E Q  E E E E      +E  E S S S S S S E  E  E
|---------------------|-----6------------------13-|
|---------------------|-------9p6-----6-----14----|
|----------6---6-8b10-|-(8)-------8-----6---------|
|-(7)-8-8----8--------|-------------------8-------|
|---------------------|---------------------------|
|---------------------|---------------------------|


  Gtrs I, II
  E E E E E E E E          E E E E E E E E
|------------------------|---------------------|
|------------------------|---------------------|
|------------------------|---------------------|
|------------------------|---------------------|
|-8-8-8-8-8-8-8-8--------|-8-8-8-8-8-8-8-8-----|
|-6-6-6-6-6-6-6-6--------|-6-6-6-6-6-6-6-6-----|
|
|
| Gtr III
|                                          ~~~
|  |--3--|                 |-3-| |-3-|
|  E  E  E  Q   Q    Q     E E E E E E Q  +Q
|-16-13------------------|---------------------|
|-------14-----14\-------|---------------------|
|----------15-------14\--|-8p6-----------------|
|------------------------|-----8-6-------------|
|------------------------|---------8-6---------|
|------------------------|-------------9--(9)--|


  Gtrs I, II
  E E E E E E E E     E E E E E E E E                    W
|-------------------|----------------------------------|----------|
|-------------------|----------------------------------|----------|
|-------------------|----------------------------------|----------|
|-------------------|----------------------------------|----------|
|-8-8-8-8-8-8-8-8---|-8-8-8-8-8-8-8-8------------------|-2--------|
|-6-6-6-6-6-6-6-6---|-6-6-6-6-6-6-6-6------------------|-0--------|
|
|
| Gtr III                                                 slowly
| PM----------|                              ~~~~~        dive
| E E E E E E E  E     +Q     +E      +E    +Q     Q     W      slack
|-------------------|----------------------------------|-----------|
|-------------------|----------------------------------|-----------| Last bar:
|---------------[6]-|-([6])--([6])b7r([6])-([6])--[6]--|-9\--------| Trem. bar
|-----------6-8-----|----------------------------------|-----------| w/delay effect
|-----4-6-8---------|----------------------------------|-----------|
|-4-6---------------|----------------------------------|-----------|


  Gtrs I, II
  W          
|-----------------------------------------------------------------------|
|-----------------------------------------------------------------------|
|-----------------------------------------------------------------------|
|-----------------------------------------------------------------------|
|-5---------------------------------------------------------------------|
|-3---------------------------------------------------------------------|
|
|     slowly dive    a small               vib. w/bar
|     and return      dip           dive and slowly return          
|     \___2.5___/     \1/    \1______________________________________
|                             ~~~~~~~~~~~~~~~~~~~~~~~~~~~~~~~~~~~~~~~
| E   E        +E.    +S     +S     +S     +S     +S     +S     +S   E
|--------()-()-()-()-()-()-()-()----|
|-----------------------------------------------------------------------|
|--------------------------------------------------------------------9--|
|-----------------------------------------------------------------------|
|-----------------------------------------------------------------------|
|-----------------------------------------------------------------------|


  Gtrs I, II
  W                    W             H    Q   Q       W
|--------------------|-------------|----------------|------------|
|--------------------|-------------|----------------|------------|
|--------------------|-------------|----------------|------------|
|--------------------|-------------|----------------|------------|
|-2------------------|-5-----------|-2----x\--x\----|-5----------|
|-0------------------|-3-----------|-0----x\--x\----|-3----------|
|
|                      vib. w/bar
|   slowly              dive and
|    dive             slowly retun     dive and slowly return
|  \___2.5___          \_________/   \______3.5_________________/
|                        ~~~~~~~~~~
|  H.       +S S S S     W            H.        Q       +W
|--------------x-x-x-|-------------|----------------|------------|
|--------------------|-------------|----------------|------------|
|-(9)-------(9)------|-\12/--------|-\9---------|-()-----|
|--------------------|-------------|----------------|------------|
|--------------------|-------------|----------------|------------|
|--------------------|-------------|----------------|------------|


  Gtrs I, II
  W                                                                                      W
|--------------------------------------------------------------------------------------|----------|
|--------------------------------------------------------------------------------------|----------|
|--------------------------------------------------------------------------------------|----------|
|--------------------------------------------------------------------------------------|----------|
|-2------------------------------------------------------------------------------------|-5--------|
|-0------------------------------------------------------------------------------------|-3--------|
|
|
|
|    \1/   \1/   \1/   \1/   \1/   \1/   \1/   \1/   \1/   \1/   \1/   \1/   \1/   \1/       slack
|          |-----3-----|                             |--------------6--------------|
| E  E    +E    +E    +E    +S    +S    +S    +S    +S    +S    +S    +S    +S    +S     H.     Q
|--------------------------------------------------------------------------------------|------------|
|--------------------------------------------------------------------------------------|------------|
|-----()-()-()-()-()-()-()-()-()-()-()-()-()-|-5S=====0/--|
|--------------------------------------------------------------------------------------|------------|
|--------------------------------------------------------------------------------------|------------|
|--------------------------------------------------------------------------------------|------------|


    Gtrs I, II
     E  E  E  E  E  E  E  E    E  E  E  E  E  E  E  E
||-----12-12-10-12-12----12-|-12-10-12-12----12-10-12-|
||o-12--5--5--3--5--5-12--5-|--5--3--5--5-12--5--3--5-| One guitar above
||---4-----------------3----|--------------4----------|  one down'stairs'
||--------------------------|-------------------------|
||o-------------------------|-------------------------|
||--------------------------|-------------------------|
||
||
||  Gtr III
||  PM--------------------------------------|
||  E E E E E E E E           E E E E E E E E
||--------------------------|-------------------------|
||o-------------------------|-------------------------|
||--------------------------|-------------------------|
||--------------------------|-------------------------|
||o-------------------------|-------------------------|
||--0-0-0-0-0-0-0-0---------|-0-0-0-0-0-0-0-0---------|


  Gtrs I, II
   E  E  E  E  E  E  E  E    E  E  E  E  E  E  E  E  4x
|----12-12-10-12-12-12-12-|-12-10-12-12----12-10-12--||
|-12--5--5--3--5--5--5--5-|--5--3--5--5-12--5--3--5-o||
|--4----------------------|--------------4-----------||
|-------------------------|--------------------------||
|-------------------------|-------------------------o||
|-------------------------|--------------------------||
|
|
| Gtr III
| PM--------------------------------------|
| E E E E E E E E           E E E E E E E E          4x
|-------------------------|--------------------------||
|-------------------------|-------------------------o||
|-------------------------|--------------------------||
|-------------------------|--------------------------||
|-3-3-3-3-3-3-3-3---------|-3-3-2-2-0-0-------------o||
|-------------------------|-------------3-3----------||


    Gtrs I, II
          PM     PM    PM|           PM
    Q   E E  E E E E   E E  E E  E E E E
||-------------------|-------------------|
||o------------------|-------------------|
||-------------------|-------------------|
||--9--11---11-9---9-|-----11---11-9---5-|
||o-7---7----7-7---7-|------7----7-7---3-|
||--0---0-0--0-0-0-0-|-0-0--0-0--0-0-0---|


  Gtrs I, II
              PM    PM|   PM    PM|
  E E E E E E E E   E E E E E E E E
|-----------------|------------------||
|---------------5-|-----6---6-5-----o||
|---------------5-|-----5---5-5------||
|-5-5-7---3-2---5-|-----5---5-5------||
|-3-3-3-x-3-3-3-3-|-3-3-3-3-3-3-3-3-o||
|-----------------|------------------||


  Gtrs I, II
             PM    PM|   PM    PM|
  Q  E E E E E E   E E E E E E E E
|----------------|-----------------|
|----------------|-----3---3-2-----|
|-2--------------|-----2---2-2-----|
|-2--0-2-0-2---2-|-----2---2-2-----|
|-0----0---0-0-0-|-0-0---0-----0---|
|----------------|---------------0-|


  Gtrs I, II
  ~~~~~~~~~~~~~~~~~~~~PM--|
  Q.  E +Q   Q    +E  E E E E E E E
|---------------|-------------------|
|---------------|-------------------|
|---------------|-------------------|
|---------------|-------------------|
|---------------|-----------3p2-----|
|-3---2-(2)--3--|-(3)-0-2-3-----3-2-|


    Gtrs I, II
    E E E E E E E E   E E E E E E E E
||------------------|-----------------|
||o-----------------|-----------------|
||------------------|-----------------|
||------------------|-----------------|
||o-----------------|-----------------|
||--0-0-2-0-0-3-0-0-|-2-0-0-3-0-0-2-3-|


  Gtrs I, II
  ~~~~~~~~~~~~~~~~~~~~~PM--|
  Q.   E +Q   Q    +E  E E E E E E E
|----------------|--------------------||
|----------------|-------------------o||
|----------------|--------------------||
|----------------|--------------------||
|----------------|-----------3p2-----o||
|-3----2-(2)--3--|-(3)-0-2-3-----3-2--||

  Gtrs I, II
             Gtr I
              T  T  T  T  T  T  T  T  T
  W           S  E  T  T  T  T  E  S  Q  Q
|----------|-19-19-19-19-24-24-24-24-19------|
|----------|---------------------------------|
|----------|---------------------------------|
|----------|---------------------------------|
|-2--------|---------------------------------|
|-0--------|-----------------------------x\--|


Duration Legend
---------------
W - whole; 
H - half; 
Q - quarter; 
E - 8th; 
S - 16th; 
T - 32nd; 
X - 64th; 
a - acciaccatura
+ - note tied to previous; 
. - note dotted; 
.. - note double dotted
Uncapitalized letters represent notes that are staccato (1/2 duration)
Irregular groupings are notated above the duration line
Duration letters will always appear directly above the note/fret number it represents the
duration for.  Duration letters with no fret number below them represent rests.  Multi-
bar rests are notated in the form Wxn, where n is the number of bars to rest for.  Low
melody durations appear below the staff

Tablature Legend
----------------
 h   - hammer-on
 p   - pull-off
 b   - bend
 pb  - pre-bend
 r   - bend release (if no number after the r, then release immediately)
 /\  - slide into or out of (from/to "nowhere")
 s   - legato slide
 S   - shift slide
  - natural harmonic
[n]  - artificial harmonic
n(n) - tapped harmonic
 ~   - vibrato
 tr  - trill
 T   - tap
 TP  - trem. picking
 PM  - palm muting
\n/  - tremolo bar dip; n = amount to dip
 \n  - tremolo bar down
 n/  - tremolo bar up
/n\  - tremolo bar inverted dip
 =   - hold bend; also acts as connecting device for hammers/pulls
   - volume swell (louder/softer)
 x   - on rhythm slash represents muted slash
 o   - on rhythm slash represents single note slash

Misc Legend
-----------
 |  - bar
||  - double bar
||o - repeat start
o|| - repeat end
*|  - double bar (ending)
 :  - bar (freetime)
 $  - Segno
 &  - Coda
Tempo markers -  = BPM(8/16=s8/s16), where s8 = swing 8ths, s16 = swing 16ths


***************************************************************************************
* Generated using Power Tab Editor by Brad Larsen - http://powertab.guitarnetwork.org *
***************************************************************************************
Comments