Metallica - Bleeding Me Chords & Tabs

 

Bleeding Me Chords & Tabs

Metallica Chords & Tabs

Version: 2 Type: Tab 2 ratings
1 star 2 stars 3 stars 4 stars 5 stars
comments

Bleeding Me Tab

OK, i'm gonna write this step by step
here we go:

Clean
E|--------------------------------------------------------------------|   }
B|--------------------------------------------------------------------|   }
G|--------------------------------------------------------------------|   }
D|--------5p0------------------5-------------5p0----------------------|   }
A|----/7-------7~~---7-------5----7~~----/7-------7~~-----7------4--2-|   }
E|-0--------------0-----0--5----------0----------------0-----0h5----3-|   }
                                                                          }  
                                                                          }Play
                                                                          }Twice
E|--------------------------------------------------------------------|   }
B|--------------------------------------------------------------------|   }
G|--------------------------------------------------------------------|   }
D|--------5p0------------------5-------------5p0----------------------|   }
A|----/7-------7~~---7-------5----7~~----/7-------7/5-----5-----5-----|   }
E|-0--------------0-----0--5----------0----------------3----3-2---2-0-|   }

Then:

E|--------------------------------------------------------------------|   
B|--------------------------------------------------------------------|   
G|--------------------------------------------------------------------|   
D|--------5p0------------------5-------------5p0----------------------|   
A|----/7-------7~~---7-------5----7~~----/7-------7~~-----7------4--2-|   
E|-0--------------0-----0--5----------0----------------0-----0h5----3-|


E|--------------------------------------------------------------------|
B|--------------------------------------------------------------------|
G|--------------------------------------------------------------------|
D|--------5p0------------------5-------------5h7--7b------------------|
A|----/7-------7~~---7-------5----7~~----/7--------------5-----5------|
E|-0--------------0-----0--5----------0---------------3----3-2---2-0--|

With this as backing:
Clean
E|-0------0-------0--------0----------0------0--------0-------0-------|
B|-8------8-------8--------8----7-----8------8--------8-------8-----7-|
G|-9------9-------9--------9----------9------9--------9-------9-------|
D|--------------------------------------------------------------------|
A|--------------------------------------------------------------------|
E|--------------------------------------------------------------------|


E|-0------0-------0--------0----------0------0--------0-------0-------|
B|-8------8-------8--------8----7-----8------8--------8-------8-----7-|
G|-9------9-------9--------9----------9------9--------9-------9-------|
D|--------------------------------------------------------------------|
A|--------------------------------------------------------------------|
E|--------------------------------------------------------------------|

Verse 1:

E|--------------------------------------------------------------------|   
B|--------------------------------------------------------------------|   
G|--------------------------------------------------------------------|   
D|--------5p0------------------5-------------5p0----------------------|   
A|----/7-------7~~---7-------5----7~~----/7-------7~~-----7------4--2-|   
E|-0--------------0-----0--5----------0----------------0-----0h5----3-|


E|-----------------------------------------------------------------------| 
B|-----------------------------------------------------------------------|
G|----------------------------------------------------x--7--7/9--9/12--9-| 
D|--------5p0------------------5-------------5p0-------------------------|
A|----/7-------7~~---7-------5----7~~----/7-------5~~-x--5--5/7--7/10--7-|  
E|-0--------------0-----0--5----------0----------------------------------|


E|------------------------------------------------------------------------|
B|------------------------------------------------------------------------|
G|------------------------------------------------------------------------|
D|--------5p0------------------5-------------5p0---------------5--7b--5~~-|
A|----/7-------7~~---7-------5----7~~----/7-------5~~-----5h7-------------|
E|-0--------------0-----0--5----------0----------------0------------------|


E|--------------------------------------------------------------------|   
B|--------------------------------------------------------------------|   
G|--------------------------------------------------------------------|   
D|--------5p0------------------5-------------5p0----------------------|   
A|----/7-------7~~---7-------5----7~~----/7-------7/5-----5-----5-----|   
E|-0--------------0-----0--5----------0----------------3----3-2---2-0-|   

Verse backing:
Clean
E|-------------------------------12-------------------------------------7-|
B|-------------------------------12--------------------------------8----7-|
G|-------------------------12---------------------------------9---------9-|
D|-------------------14---------------------------------------------------|
A|------------------------------------------------------------------------|
E|------------------------------------------------------------------------|


E|-------------------------------12---------------------------------------|
B|-------------------------------12---------------------------------------|
G|-------------------------12---------------------------------------------|
D|-------------------14---------------------------------------------------|
A|------------------------------------------------------------------------|
E|------------------------------------------------------------------------|

Chorus:
Distorted
E|-------------------------------------------------|
B|-------------------------------------------------|
G|-9-9-x-9-9---7-7-x-7-7---7-7-x-7-7---9-9-x-9-9---|   Play Twice
D|-9-9-x-9-9---7-7-x-7-7---7-7-x-7-7---9-9-x-9-9---|     with:
A|-7-7-x-7-7---5-5-x-5-5---5-5-x-5-5---7-7-x-7-7---|
E|-------------------------------------------------|


E|--------------------------------------------------------------------------|
B|--------------------------------------------------------------------------|
G|----------12b~~----------------------------7------------------------------|  Play
D|------12-----------------5--7b----------5-----7b~~------5--7b---7p5-------|  Twice
A|-/14-----------------/7-------------/7-------------------------------7~~~-|
E|--------------------------------------------------------------------------|

Verse 2 (with same backings as before):
Clean
E|--------------------------------------------------------------------|   
B|--------------------------------------------------------------------|   
G|--------------------------------------------------------------------|   
D|--------5p0------------------5-------------5p0----------------------|   
A|----/7-------7~~---7-------5----7~~----/7-------7~~-----7------4--2-|   
E|-0--------------0-----0--5----------0----------------0-----0h5----3-|


E|--------------------------------------------------------------------|
B|--------------------------------------------------------------------|
G|--------------------------------------------------------------------|
D|--------5p0------------------5-------------5h7--7b------------------|
A|----/7-------7~~---7-------5----7~~----/7--------------5-----5------|
E|-0--------------0-----0--5----------0---------------3----3-2---2-0--|


E|------------------------------------------------------------------------|
B|------------------------------------------------------------------------|
G|------------------------------------------------------------------------|
D|--------5p0------------------5-------------5p0---------------5--7b--5~~-|
A|----/7-------7~~---7-------5----7~~----/7-------5~~-----5h7-------------|
E|-0--------------0-----0--5----------0----------------0------------------|


E|------------------------------------------------------------------------------| 
B|------------------------------------------------------------------------------|
G|----------------------------------------------------x--7--7/9--9/12--12/11--9-| 
D|--------5p0------------------5-------------5p0--------------------------------|
A|----/7-------7~~---7-------5----7~~----/7-------5~~-x--5--5/7--7/10--10/9---7-|  
E|-0--------------0-----0--5----------0-----------------------------------------|


E|--------------------------------------------------------------------|   
B|--------------------------------------------------------------------|   
G|--------------------------------------------------------------------|  
D|--------5p0------------------5-------------5p0----------------------|   
A|----/7-------7~~---7-------5----7~~----/7-------7~~-----7------4--2-|   
E|-0--------------0-----0--5----------0----------------0-----0h5----3-|   
                                                                         
                                                                               
E|--------------------------------------------------------------------|   
B|--------------------------------------------------------------------|   
G|--------------------------------------------------------------------|   
D|--------5p0------------------5-------------5p0----------------------|   
A|----/7-------7~~---7-------5----7~~----/7-------7/5-----5-----5-----|   
E|-0--------------0-----0--5----------0----------------3----3-2---2-0-|

Chorus:
Distorted
E|-------------------------------------------------|
B|-------------------------------------------------|
G|-9-9-x-9-9---7-7-x-7-7---7-7-x-7-7---9-9-x-9-9---|   Play Twice
D|-9-9-x-9-9---7-7-x-7-7---7-7-x-7-7---9-9-x-9-9---|     with:
A|-7-7-x-7-7---5-5-x-5-5---5-5-x-5-5---7-7-x-7-7---|
E|-------------------------------------------------|


E|--------------------------------------------------------------------------|
B|--------------------------------------------------------------------------|
G|----------12b~~----------------------------7------------------------------|Play 
D|------12-----------------5--7b----------5-----7b~~------5--7b---7p5-------|Twice   
A|-/14-----------------/7-------------/7-------------------------------7~~~-|
E|--------------------------------------------------------------------------|

Then:
E|------------------------------------------------------------|
B|------------------------------------------------------------|
G|------------------------------------------------------------|
D|-/9--9--9-----/7--7--7-----/7--7--7--------------x--x--x----|
A|-/7--7--7-----/5--5--5-----/5--5--5-----7--7--7--x--x--x----|
E|----------------------------------------5--5--5--x--x--x----|


E|------------------------------------------------------------|
B|------------------------------------------------------------|
G|------------------------------------------------------------|
D|-/9--9--9-----/7--7--7-----/7--7--7-------------------------|
A|-/7--7--7-----/5--5--5-----/5--5--5-----7--7--7-------------|
E|----------------------------------------5--5--5--0--3~~~----|


E|------------------------------------------------------------|
B|------------------------------------------------------------|
G|------------------------------------------------------------|
D|-/9--9--9--9b--7--7--7-----/7--7--7-------------------------|
A|-/7--7--7------5--5--5-----/5--5--5-----7--7--7-------------|
E|----------------------------------------5--5--5--0--3~~~----|


E|---------------------------------------------------------------|
B|---------------------------------------------------------12b---|
G|---------------------------------------------------------12b---|   Continue
D|-/9--9--9------7--7/9--7~~--/7--7--7-----------------12--------|     with:
A|-/7--7--7------5------------/5--5--5-----7--7--7/14------------|
E|-----------------------------------------5--5--5---------------|


E|---------------------------------------------|
B|---------------------------------------------|
G|-----7--------------7------------------------|   
D|-/9-----7~~------5-----7b~~--5--7b--7p5------|     
A|-------------/7--------------------------7~~-|
E|---------------------------------------------|


E|------------------------------------------------------------|
B|------12--12b-----------------------------------------------|
G|------12--12b-------7--------------7------------------------|
D|----------------/9-----7~~------5-----7b~~--5--7b--7p5------|
A|-/14------------------------/7--------------------------7~~-|
E|------------------------------------------------------------|
[ Tab from: http://www.guitartabs.cc/tabs/m/metallica/bleeding_me_tab_ver_2.html ]
Slow Middle Solo:
Clean 
E|---------------------------------------------------------------------------|
B|---------------------------------------------------------------------------|
G|-4/9--12\11/12\9--12\11/12\9--12\11/12/14--11/12\9--12\11/12\9--12\11/12\9-|
D|---------------------------------------------------------------------------|
A|---------------------------------------------------------------------------|
E|---------------------------------------------------------------------------|

E|-------------|
B|-------------|
G|-12\11/12/14-|
D|-------------|
A|-------------|
E|-------------|


E|-10/12--15\14/15\12--15\14/15\12--15\14/15/17--14/15\12--15\14/15\12-|
B|---------------------------------------------------------------------|
G|---------------------------------------------------------------------|
D|---------------------------------------------------------------------|
A|---------------------------------------------------------------------|
E|---------------------------------------------------------------------|


E|-15\14/15\12--15\14/15/17--19///-------------------------------------|
B|---------------------------------------------------------------------|
G|---------------------------------------------------------------------|
D|---------------------------------------------------------------------|
A|---------------------------------------------------------------------|
E|---------------------------------------------------------------------|


Chorus:
Distorted
E|------------------------------------------------------------|
B|------------------------------------------------------------|
G|------------------------------------------------------------|
D|-/9--9--9-----/7--7--7-----/7--7--7--------------x--x--x----|
A|-/7--7--7-----/5--5--5-----/5--5--5-----7--7--7--x--x--x----|
E|----------------------------------------5--5--5--x--x--x----|


E|------------------------------------------------------------|
B|------------------------------------------------------------|
G|------------------------------------------------------------|
D|-/9--9--9-----/7--7--7-----/7--7--7-------------------------|
A|-/7--7--7-----/5--5--5-----/5--5--5-----7--7--7-------------|
E|----------------------------------------5--5--5--0--3~~~----|


E|------------------------------------------------------------|
B|------------------------------------------------------------|
G|------------------------------------------------------------|
D|-/9--9--9--9b--7--7--7-----/7--7--7-------------------------|
A|-/7--7--7------5--5--5-----/5--5--5-----7--7--7-------------|
E|----------------------------------------5--5--5--0--3~~~----|


E|---------------------------------------------------------------|
B|---------------------------------------------------------------|
G|---------------------------------------------------------------|   
D|-/9--9--9--9b--7--7/9--7~~--/7--7--7---------------------2~~---|     
A|-/7--7--7------5------------/5--5--5-----7--7--7---------2~~---|
E|-----------------------------------------5--5--5--0--3~--0~~---|

"I am the Beast..." part (4:47)
Distorted
E|----------------------------------------------------------------------|
B|----------------------------------------------------------------------|
G|----------------------------------------------------------------------|  Play 4
D|-7h9-----9-----9-----9--------10p9--9~~~--9-----9-----9----------10p9-|   Times
A|-7-------7-----7-----7---7h10-------7~~~--7-----7-----7-----7h10------|
E|-0---0-0-0-0-0-0-0-0-0-0------------------0-0-0-0-0-0-0-0-0-----------|

Chorus:
Distorted
E|-----------------------------------------------------------------|
B|------------------------------------------------------7b---------|
G|---------------------------------------------5-----5--7b--5------|
D|-/9--9--9-----/7--7--7-----/7--7--7----5--7-----7------------7---|
A|-/7--7--7-----/5--5--5-----/5--5--5------------------------------|
E|-----------------------------------------------------------------|


E|------------------------------------------------------------------|
B|------------------------------------------8b--8b--8b--------------|
G|---------------------------------------5--7b--7b--7b---7p5--------|
D|-/9--9--9-----/7--7--7-----/7--7----7-----------------------7~~---|
A|-/7--7--7-----/5--5--5-----/5--5----------------------------------|
E|------------------------------------------------------------------|


E|------------------------------------------------------------|
B|------------------------------------------------------------|
G|------------------------------------------------------------|
D|-/9--9--9--9b--7--7--7-----/7--7--7-------------------------|
A|-/7--7--7------5--5--5-----/5--5--5-----7--7--7-------------|
E|----------------------------------------5--5--5--0--3~~~----|


E|-----------------------------------------------------------|
B|-----------------------------------------------------------|
G|-----------------------------------------------------------|   
D|-/9--9--9--9b--7--7/9--7~~--/7--7--7-----------------------|     
A|-/7--7--7------5------------/5--5--5-----7--7--7-----------|
E|-----------------------------------------5--5--5--0--3~~~--|
Solo:

E|-----------------------------------------------------------
B|-----------------------------------------------------------
G|----12~----------14-12--------------------------------12b~-
D|-14-----12-14-14-------14-12~--14-14~-12-14-14~-14-12-12b~-
A|-----------------------------------------------------------
E|-----------------------------------------------------------


-------------------------------------------------------------------
-------------------------------------------------------------------
----------------14-12-------14b-12-----14b-12----------------------
14-14-12-14-14~-------14-12--------14~--------14-12----12h14-12----
----------------------------------------------------14----------14-
-------------------------------------------------------------------

E|-15-12----12-------------------------------------------------------------
B|-------15----15-12----12-------------------------------------------------
G|-------------------14----14-12----12-14b-14p12----12-14-12-------12------
D|-------------------------------14--------------14----------14-12----14~~-
A|-------------------------------------------------------------------------
E|-------------------------------------------------------------------------


E|-12h15p12----12-----12h15p12----12-----12h15p12----12-----
B|----------15----15b----------15----15b----------15----15b-
G|----------------------------------------------------------
D|----------------------------------------------------------
A|----------------------------------------------------------
E|----------------------------------------------------------


-----------------------------------------------
-15p12-12-12-15p12-12-12-15p12-12-12-15p12-----
-----------------------------------------------
-----------------------------------------------
-----------------------------------------------
-----------------------------------------------


E|----------------------------------------------------------
B|-12h15p12----12h15p12----12h15p12-12h15p12----12h15p12----
G|----------14----------14-------------------14----------14-
D|----------------------------------------------------------
A|----------------------------------------------------------
E|----------------------------------------------------------


------------------------------------------------
12h15p12-12h15p12----12h15p12-12h15p12--15b-15b-
------------------14----------------------------
------------------------------------------------
------------------------------------------------
------------------------------------------------


E|--------------------------------------
B|-12--14--15--14--12-14---14-15-14-12--
G|-12--14--15--14--12-14---14-15-14-12--
D|--------------------------------------
A|--------------------------------------
E|--------------------------------------


----------------------------------------------
15b~-15-12-------------15b~-15-12-------------
-----------14-12------------------14-12-------
-----------------14-12------------------14-12-
----------------------------------------------
----------------------------------------------



E|---------------------------------
B|-15b-15b-12-15b-12-15--15-12-15b-
G|---------12-----12-15--15-12-----
D|---------------------------------
A|---------------------------------
E|---------------------------------


E|----------------------------------------------------------------------
B|-----------------------------------------------15-12------------------
G|-9--9--9--12/14--12--14--12--11------12-14-14b-------14-14b-12----14b-
D|---------------------------------/14---------------------------14-----
A|-7--7--7--10/12--10--12--10--9----------------------------------------
E|----------------------------------------------------------------------


E|------------------------------------------------
B|------------------------------------------------
G|-9--9--9--12/14--12--14--12--11~/12-12/14-14/16-
D|------------------------------------------------
A|-7--7--7--10/12--10--12--10--9~~/10-10/12-12/14-
E|------------------------------------------------


-------------------------------------
-----------------------------14-12~~-
----12-14-14b-12----------12-14-12~~-
/14--------------14-12-14------------
-------------------------------------
-------------------------------------

Distorted still
E|--------------------------------------------------------------------|   
B|--------------------------------------------------------------------|   
G|--------------------------------------------------------------------|   
D|--------5p0------------------5-------------5p0----------------------|   
A|----/7-------7~~---7-------5----7~~----/7-------7~~-----7------4--2-|   
E|-0--------------0-----0--5----------0----------------0-----0h5----3-|   
                                                                           
                                                                                
E|--------------------------------------------------------------------|   
B|--------------------------------------------------------------------|   
G|--------------------------------------------------------------------|   
D|--------5p0------------------5-------------5p0----------------------|   
A|----/7-------7~~---7-------5----7~~----/7-------7/5-----5-----5-----|   
E|-0--------------0-----0--5----------0----------------3----3-2---2-0-| 

Clean
E|--------------------------------------------------------------------|   
B|--------------------------------------------------------------------|   
G|--------------------------------------------------------------------|   
D|--------5p0------------------5-------------5p0----------------------|   
A|----/7-------7~~---7-------5----7~~----/7-------7~~-----7------4--2-|   
E|-0--------------0-----0--5----------0----------------0-----0h5----3-|


E|--------------------------------------------------------------------|
B|--------------------------------------------------------------------|
G|--------------------------------------------------------------------|
D|--------5p0------------------5-------------5h7--7b------------------|
A|----/7-------7~~---7-------5----7~~----/7--------------5-----5------|
E|-0--------------0-----0--5----------0---------------3----3-2---2-0--|


E|--------------------------------------------------------------------|   
B|--------------------------------------------------------------------|   
G|--------------------------------------------------------------------|   
D|--------5p0------------------5-------------5p0----------------------|   
A|----/7-------7~~---7-------5----7~~----/7-------7~~-----7------4--2-|   
E|-0--------------0-----0--5----------0----------------0-----0h5----3-|


E|------------------------------------------------------------------------|
B|------------------------------------------------------------------------|
G|------------------------------------------------------------------------|
D|--------5p0------------------5-------------5p0---------------5--7b--5~~-|
A|----/7-------7~~---7-------5----7~~----/7-------5~~-----5h7-------------|
E|-0--------------0-----0--5----------0----------------0------------------|


E|--------------------------------------------------------------------|   
B|--------------------------------------------------------------------|   
G|--------------------------------------------------------------------|   
D|--------5p0------------------5-------------5p0----------------------|   
A|----/7-------7~~---7-------5----7~~----/7-------7~~-----7------4--2-|   
E|-0--------------0-----0--5----------0----------------0-----0h5----3-|   
                                                                           
                                                                             
E|--------------------------------------------------------------------|   
B|--------------------------------------------------------------------|   
G|--------------------------------------------------------------------|   
D|--------5p0------------------5-------------5p0----------------------|   
A|----/7-------7~~---7-------5----7~~----/7-------7/5-----5-----5-----|   
E|-0--------------0-----0--5----------0----------------3----3-2---2-0-|   
 
Whew, this took me a while...

There you go, the solo is probably
a little off, but the rest should
be fine.

Boris Zivkovic
Comments