Metallica - Bassguitar Doodle Cunningstunts Chords & Tabs

 

Bassguitar Doodle Cunningstunts Chords & Tabs

Metallica Chords & Tabs

Version: 1 Type: Bass Tab 2 ratings
1 star 2 stars 3 stars 4 stars 5 stars
comments

Bassguitar Doodle Cunningstunts Bass Tab

Submitted by: Fontoppidan 
Song Title: Bass/Guitar Doodle, CunningStunts 
Artist: Metallica 



G||--------14--16--14--13------|--14--16--14--13----13h14-13------|
D||*---------------------------|------------------------------16--|
A||*---------------------------|----------------------------------|
E||---0------------------------|----------------------------------|

------------------------------|--------------------------||
--14----------19--------------|----------19-------------*||
------16------------16--------|----16----------16-------*||
----------17--------------17--|----------------------0---||

------------11-----------11--|---------11---------11---------|
-----12-----------12---------|--12---------12---------12-----|
--0------0------------0------|------0----------0----------0--|
-----------------------------|-------------------------------|

-------------12---------|-------------12--------|------------11---------11--|
--------9----------9----|--------9--------------|----------------12---------|
--10--------------------|--10-------------------|--0--0--------------0------|
------------------------|-----------------------|---------------------------|

---------11---------11---------|-------------12---------|
--12---------12---------12-----|--------9----------9----|
------0----------0----------0--|--10--------------------|
-------------------------------|------------------------|

-------------12---------||---------14--16--14--13------|
--------9----------9----||*----------------------------|
--10--------------------||*----------------------------|
------------------------||---0--0----------------------|

--14--16--14--13----13h14-13------|------------------------------|
------------------------------16--|--14----------19--------------|
----------------------------------|------16------------16--------|
----------------------------------|----------17--------------17--|

--------------------------||------------11-----------11--|
----------19-------------*||-----12-----------12---------|
----16----------16-------*||--0------0------------0------|
----------------------0---||-----------------------------|

---------11---------11---------|-------------12---------|
--12---------12---------12-----|--------9----------9----|
------0----------0----------0--|--10--------------------|
-------------------------------|------------------------|

-------------12--------|------------11---------11--|
--------9--------------|----------------12---------|
--10-------------------|--0--0--------------0------|
-----------------------|---------------------------|

---------11---------11---------|-------------12---------|--12----------------|
--12---------12---------12-----|--------9----------9----|--9-----------------|
------0----------0----------0--|--10--------------------|--10----------------|
-------------------------------|------------------------|--------------------|

-----10---------10---------10--|--14---------12---------10-----|
---------12---------12---------|------12---------12------------|
--0----------0----------0------|----------0----------0------0--|
-------------------------------|-------------------------------|

-----9---------9---------9--|--12---------10---------9-----|
--------10--------10--------|------10---------10-----------|
--0---------0---------0-----|----------0----------0-----0--|
----------------------------|------------------------------|

-----10---------10---------10--|--14---------12---------10-----|
---------12---------12---------|------12---------12------------|
--0----------0----------0------|----------0----------0------0--|
-------------------------------|-------------------------------|
 
-----9---------9---------9--|--12---------10---------9-----|
--------10--------10--------|------10---------10-----------|
--0---------0---------0-----|----------0----------0-----0--|
----------------------------|------------------------------|
 
-----10---------10---------10--|--14---------12---------10-----|
---------12---------12---------|------12---------12------------|
--0----------0----------0------|----------0----------0------0--|
-------------------------------|-------------------------------|

-----9---------9---------9--|--12---------10---------9-----|
--------10--------10--------|------10---------10-----------|
--0---------0---------0-----|----------0----------0-----0--|
----------------------------|------------------------------|

-----10---------10---------10--|--14---------12---------10-----|
---------12---------12---------|------12---------12------------|
--0----------0----------0------|----------0----------0------0--|
-------------------------------|-------------------------------|

-----9---------9---------9--|--12---------10---------9-----|
--------10--------10--------|------10---------10-----------|
--0---------0---------0-----|----------0----------0-----0--|
----------------------------|------------------------------|

--------7-----4--------5--|----------5--------5-----|--------7-----4--------5--|
-----5-----5-----5--------|----7--------7--------7--|-----5-----5-----5--------|
--0-----------------0-----|-------0--------0--------|--0-----------------0-----|
--------------------------|-------------------------|--------------------------|

----------5--------5-----|--------7-----4--------5--|----------5--------5-----|
----7--------7--------7--|-----5-----5-----5--------|----7--------7--------7--|
-------0--------0--------|--0-----------------0-----|-------0--------0--------|
-------------------------|--------------------------|-------------------------|
 
--------7-----4--------5--|----------7--------9------||
-----5-----5-----5--------|----7--------9--------10--||
--0-----------------0-----|-------0--------0---------||
--------------------------|--------------------------||



Bass/Guitar Doodle                                
[ Tab from: http://www.guitartabs.cc/tabs/m/metallica/bassguitar_doodle_cunningstunts_btab.html ]
Electric w/Volume Wah
                                                     
E||-------------------|------------------|------------------|
B||-------------------|------------------|------------------|
G||*------------------|------------------|------------------|
D||*------------------|------------------|------------------|
A||-------------------|------------------|------------------|
E||-------------------|------------------|------------------|

-------------------||------------------|------------------|------------------|
-------------------||------------------|------------------|------------------|
------------------*||------------------|------------------|------------------|
------------------*||------------------|------------------|------------------|
-------------------||------------------|------------------|------------------|
-------------------||------------------|------------------|------------------|

------------------|------------------|------------------|------------------|
------------------|------------------|------------------|------------------|
------------------|------------------|------------------|------------------|
------------------|------------------|------------------|------------------|
------------------|------------------|------------------|------------------|
------------------|------------------|------------------|------------------|

------------------||-------------------|------------------|------------------|
------------------||-------------------|------------------|------------------|
------------------||*------------------|------------------|------------------|
------------------||*------------------|------------------|------------------|
------------------||-------------------|------------------|------------------|
------------------||-------------------|------------------|------------------|

-------------------||------------------|------------------|------------------|
-------------------||------------------|------------------|------------------|
------------------*||------------------|------------------|------------------|
------------------*||------------------|------------------|------------------|
-------------------||------------------|------------------|------------------|
-------------------||------------------|------------------|------------------|

------------------|------------------|------------------|------------------|
------------------|------------------|------------------|------------------|
------------------|------------------|------------------|------------------|
------------------|------------------|------------------|------------------|
------------------|------------------|------------------|------------------|
------------------|------------------|------------------|------------------|

------------------|------------------|---------------------|-------------------|
------------------|------------------|----------------5----|-------------------|
------------------|------------------|---------5-----------|-------------------|
------------------|------------------|--7------------------|--7----------------|
------------------|------------------|---------------------|-------------------|
------------------|------------------|---------------------|-------------------|

---------------------|-------------------|---------------------|
--5------------------|-------------------|----------------5----|
---------7------5----|--7----------------|---------5-----------|
---------------------|-------------------|--7------------------|
---------------------|-------------------|---------------------|
---------------------|-------------------|---------------------|

-------------------|---------------------|-------------------|
-------------------|--5------------------|-------------------|
-------------------|---------7------5----|--7----------------|
--7----------------|---------------------|-------------------|
-------------------|---------------------|-------------------|
-------------------|---------------------|-------------------|

-----------------------|-------------------|-----------------------|
--10r-----10------5----|-------------------|--10r-----10-----------|
-----------------------|--5----------------|------------------5----|
-----------------------|-------------------|-----------------------|
-----------------------|-------------------|-----------------------|
-----------------------|-------------------|-----------------------|

-------------------|---------------------|-------------------|
-------------------|----------------5----|-------------------|
--7----------------|---------5-----------|-------------------|
-------------------|--7------------------|--7----------------|
-------------------|---------------------|-------------------|
-------------------|---------------------|-------------------|

--------------------|---------------------|--------------------|
--------------------|---------------------|----------7r---5----|
--------------------|---------------------|----------7r---5----|
--9----5------------|---------------------|--------------------|
--------------------|---------------5-----|--------------------|
--------------------|--3---------------5--|--------------------|

---------------------|----------5h8p5h8p5h8p5h8-|---------------------|
---------------------|--------------------------|---------------------|
---------------------|--------------------------|---------------------|
---------------------|--------------------------|---------------------|
---------------5-----|--------------------------|---------------5-----|
--3---------------5--|--------------------------|--3---------------5--|

--------------------|---------------------|----------12--------||
----------7r---5----|---------------------|----------12--------||
----------7r---5----|---------------------|----------12--------||
--------------------|---------------------|--------------------||
--------------------|---------------5-----|--------------------||
--------------------|--3---------------5--|--------------------||
Comments