Metallica - Astronomy Chords & Tabs

 

Astronomy Chords & Tabs

Metallica Chords & Tabs

Version: 5 Type: Tab 0 ratings
1 star 2 stars 3 stars 4 stars 5 stars
comments

Astronomy Tab

   
Astronomy

INTRO:

   Em                  Em
E:--0---0---------------0---------------------------------------|
B:--0---0---------------0---------------------------------------|
G:--0---0---4---2---0---0---------------------------------------|
D:--2---2---------------2---------------------------------------|
A:--2---2---------------2---------------------------------------|
E:--0---0---------------0---------------------------------------|
[ Tab from: http://www.guitartabs.cc/tabs/m/metallica/astronomy_tab_ver_5.html ]
Bridge: Overdrived Gtr 1 (Jaymz)
E:----------------------------------------------------|
B:----------------------------------------------------|
G:--4p2p0--2--0-----------4p2p0---2--0----------------|
D:-----------------4--------------------2-------------|
A:----------------------------------------------------|
E:----------------------------------------------------|

Gtr 2 (Kirk)
E:--------------------------------------------------------------|
B:--------------------------------------------------------------|
G:--9-9-9-9-9---------------------------------------------------|
D:-------------9--9/12---12--10---9--10--9--7/9-----------------|
A:--------------------------------------------------------------|
E:--------------------------------------------------------------|
Comments