Metallica - And Justice For All Solo Chords & Tabs

 

And Justice For All Solo Chords & Tabs

Metallica Chords & Tabs

Version: 1 Type: Tab 0 ratings
1 star 2 stars 3 stars 4 stars 5 stars
comments

And Justice For All Solo Tab

AND JUSTICE FOR ALL SOLO

By Matt Bennett
kf6rtb@juno.com

This TAB transcription was created using TAB MASTER version 1.0

--------------------------------------------------------------------
Transcript index:

	b= bend (note in parenthises is how far ya bend it)
	r= release bend
	h= hammer on
	p= pull off
	w= Whammy bar
	~= Vibrato
	T= pick or finger tap

--------------------------------------------------------------------

Starts off heavy with heavy distortion:


					       Here you pull off with
					your fingers and tap the "T"
						notes with your pick

e:-------------------------------14-17b(19)r17--14-17p14-17p14-T19--|
B:16b(18)r16---------------14-17------------------------------------|
G:16b(18)r16p14~~----14-16------------------------------------------|
D:----------------16------------------------------------------------|
A:------------------------------------------------------------------|
E:------------------------------------------------------------------|





e:17p14-17p14-T20-17p14-17p14-T19-17p14-17p4----14-14---------------|
B:------------------------------------------17----17b(19)-------14--|
G:--------------------------------------------------------------14--|
D:-----------------------------------------------------------16-----|
A:------------------------------------------------------------------|
E:------------------------------------------------------------------|





e:------------------------------------------------------------------|
B:16b(17)-16b(17)--14h16-14-----16-14~~----14--16-16w(18)~~~~-------|
G:16b(17)-16b(17)--14----14-----16-14~~----14--16-16w(18)~~~~-------|
D:--------------------------16---------16---------------------------|
A:------------------------------------------------------------------|
E:------------------------------------------------------------------|



Swith on Wah and use as filter:

e:------------------------------------17p14--------------------------------------|
B:-------14--14h17p14---------1417p14--------17p14-------14----17p14-------------|
G:16b(18)--------------16b(18)---------------------16b(18)------------16-14----14|
D:--------------------------------------------------------------------------16---|
A:-------------------------------------------------------------------------------|
E:-------------------------------------------------------------------------------|




[ Tab from: http://www.guitartabs.cc/tabs/m/metallica/and_justice_for_all_solo_tab.html ]
e:-------------------------------------------------------------------|
B:-----14h17--17b(19)r17p14-17b(19)r17p14-17b(19)r17p14-17b(19)r17p14|
G:-16----------------------------------------------------------------|
D:-------------------------------------------------------------------|
A:-------------------------------------------------------------------|
E:-------------------------------------------------------------------|



		    slow release here                      R   R   L R   R
e:---17b(20)~r17------------------------------------------T19-T19-17T19-T19-|
B:------------------------------------17b(19)~~~~---------------------------|
G:-------------------16b(18)rrrrrr16----------------------------------------|
D:--------------------------------------------------------------------------|
A:--------------------------------------------------------------------------|
E:--------------------------------------------------------------------------|


NOTE: I don't know how Kirk really does it, but here's how I think it goes.
      Constantly tap fret 19 with right finger or pick.
      Notations like "17T19" mean tap 19 and 17 at same time.
      When done correctly, the first note will sound with the release
      of the "19". Sound hard? Keep practicing it. It's really fast!


L= Left finger
R= Right finger or pick

	Numbers indicate finger: 2=index / 3=middle / 4=ring


   L R   R   L R   R   R   L R   R   L R   R   L R       R  L4 R  L3 R
e:15T19-T19-14T19-T19-T19-17T19-T19-15T19-T19-14T19-----T19-17T19-15T19|
B:---------------------------------------------------------------------|
G:---------------------------------------------------------------------|
D:---------------------------------------------------------------------|
A:---------------------------------------------------------------------|
E:---------------------------------------------------------------------|


			slide index to fret 12

   L2 R   L4 R  L3 R  L2 R /L2 R   L4 R  L3 R  L2 R
e:-14T19--17T19-15T19-14T19-12T19--15T19-14T19-12T19----------------|
B:-------------------------------------------------------15-15p13p12|
G:------------------------------------------------------------------|
D:------------------------------------------------------------------|
A:------------------------------------------------------------------|
E:------------------------------------------------------------------|


                                                    
			      slow whammy dive

e:----------------------------22wwwwwwwwwwwww2~~~~~~|
B:-15p13p12-15p13p12----------22wwwwwwwwwwwww2~~~~~~|
G:--------------------------------------------------|
D:--------------------------------------------------|
A:--------------------------------------------------|
E:--------------------------------------------------|


That's it. Email me with corrections and stuff. 

kf6rtb@juno.com
Comments