Metallica - All Nightmare Long Chords & Tabs

 

All Nightmare Long Chords & Tabs

Metallica Chords & Tabs

Version: 4 Type: Tab 0 ratings
1 star 2 stars 3 stars 4 stars 5 stars
comments

All Nightmare Long Tab

   
Band: Metallica
Song: All Nightmare LonG (SOLO 1)
ALBUM: Death Magnetic
tabbed by: PAM84

drop d tuning

e|--------------------------------|
b|--------------------------------|
g|--------------------------------|
d|-7-0-7-----5--------------------|
a|-------8-7---8--7-6-5-----------|
D|--------------------------------|


e|--------------------------------|
b|--------------------------------|
g|-7-0-8-7-0-7-----5--------------|repeat
d|-------------8-7---8--7-6-5-----|
a|--------------------------------|
D|--------------------------------|


                                       x6   
e|--------------------------------------------|
b|--------------------------------------------|
g|--------------------------------------------|
d|-/12-12-12-12-12-12-12-12-12-0--/12-12-12-0-|
a|--------------------------------------------|
D|--------------------------------------------|

e|---------------------------------|
b|---------------------------------|
g|---------------------------------|
d|-12h0-11h0-11h0-10h0-9h0-8h0-7h5-|
a|---------------------------------|
D|---------------------------------|


e|--------------------------------|
b|------------------5-------------|
g|------------------5-------------|X4
d|--7-5H7P5-7-5H7P5---------------|
a|--------------------------------|
D|--------------------------------|


e|------------------------------------------------|
b|-(12)/------------------------------------------|
g|--------4h2h0---4h2h0-4h2h0---4h2h0-4h2h0-------|x2
d|--------------4-------------4-------------4-----|
a|------------------------------------------------|
D|------------------------------------------------|

[ Tab from: http://www.guitartabs.cc/tabs/m/metallica/all_nightmare_long_tab_ver_4.html ]
e|--------|
b|--------|
g|-4h2h0--|x8
d|------4-|
a|--------|
D|--------|

e|-------------------------------------------|
b|-------------------------------------------|
g|---4h2h0---4h2h0-4h2h0---4h2h0-4h2h0-------|x2
d|---------4-------------4-------------4-----|
a|-------------------------------------------|
D|-------------------------------------------|

e|------------------------------------------------------------------|
b|-4h1h0-5h2h0-6h3h0-7h4h0-8h5h0-9h6h0-10h7h0-11h8h0-12h9h0-13h10h0-|
g|------------------------------------------------------------------|
d|------------------------------------------------------------------|
a|------------------------------------------------------------------|
D|------------------------------------------------------------------|


e|-10h7--11h8--12h9--13h10--14h11--15h12--16h13--17h14--17h14--17h14--|
b|-----0-----0-----0------0------0------0------0------0------0------0-|
g|--------------------------------------------------------------------|
d|--------------------------------------------------------------------|
a|--------------------------------------------------------------------|
D|--------------------------------------------------------------------|
     X6

e|--17H14---(17)/-20^^^^^---------|
b|--------0-----------------------|
g|--------------------------------|
d|--------------------------------|
a|--------------------------------|
D|------------------------21/-----|


e|--------------------------------|
b|--13/--13-13/-------------------|
g|--12/--12-12/-------------------|X2
d|--------------------------------|
a|--------------------------------|
D|--------------------------------|


Comments