Metallaic - Xplorer Chords & Tabs

 

Xplorer Chords & Tabs

Metallaic Chords & Tabs

Version: 1 Type: Tab 0 ratings
1 star 2 stars 3 stars 4 stars 5 stars
comments

Xplorer Tab

Into (very Fast)

10x
e--------------------
b--------------------
g-7-10-7-9-:---------
d--------------------
a--------------------
e--------------------

6x
e--------------------
b--------------------
g-/2-5-2-4-:---------
d--------------------
a--------------------
e--------------------

6x
e--------------------
b--------------------
g--------------------
d-5-8-5-7-:----------
a--------------------
e--------------------
[ Tab from: http://www.guitartabs.cc/tabs/m/metallaic/xplorer_tab.html ]
e-/12-15-12-14-------
b--------------------
g--------------------
d--------------------
a--------------------
e--------------------





Main Riff

E----------------------------
B----------------------------
G--2--4--4/5--5--5--5-4------
D-2--2--2---3---5--5-5-5-----
A----------------------------
E----------------------------

E----------------------------
B----------------------------
G--2--4--4/5--5--5--5---7-7---
D-2--2--2---3---5--5-5---5----
A----------------------------
E----------------------------




_-+Xplorer+-_ Is A Mark Of ~MetalLaic~ Band All rights reserved Chris Olejnik
Comments