Metal Church - The Dark Chords & Tabs

 

The Dark Chords & Tabs

Metal Church Chords & Tabs

Version: 1 Type: Tab 0 ratings
1 star 2 stars 3 stars 4 stars 5 stars
comments

The Dark Tab

   
Metal Church - The Dark
Tabbed By: Nick Statuto
EMail: Pantera9560@aol.com

It's about time we had some Metal Church tabs here. Tabbed by Nick S. 
(Pantera9560@aol.com) If you E-mail me use the subject "The Dark tab."
My guitar teacher helped me out with this one.

Riff 1 4x

A-9/8----8--9-9-9-9-9-9-9-9-9-9-9-9-9-9-9-9---
E-7/6----6--7-7-7-7-7-7-7-7-7-7-7-7-7-7-7-7---
            * * * * * * * * * * * * * * * *

Riff 2 twice

D-9*-9*-9*-10/9--9*-9*-9*---------9*-9*-9*-10/9--9*-9*-9*-----
A-7*-7*-7*--8/7--7*-7*-7*--2-4-5--7*-7*-7*--8/7--7*-7*-7*--8--
E--------------------------0-2-3---------------------------6--

Riff 3 twice

A-7/8-8-8-8/7-7-7-7/8-8-8-8/7-7-7-7/8-8-8-8/7---------6-5-0---
E-5/6-6-6-6/5-5-5-5/6-6-6-6/5-5-5-5/6-6-6-6/5--0-5-6----------
[ Tab from: http://www.guitartabs.cc/tabs/m/metal_church/the_dark_tab.html ]
Riff 1 twice then play

Riff 4 once
A-2--5--8--5---
E-0--3--6--3---

Riff 2 twice
Riff 3 twice
Riff 4 once

Riff 5 4x

A-0h4-------5/4-----------7--0h4-------5/4-----------3---
E-0h2--2-2--3/2--2-2-2-2--5--0h2--2-2--3/2--2-2-2-2--1---
       * *       * * * *          * *       * * * *

Riff 6 once Not sure this is correct; it was very hard to figure out.


E-5-5-5-5-5-5-5-5-5-5-5-5-5-5-5-5-2-2-2-2-2-2-2-2-2-2-2-2 cont'd below

G-2--4--5--------------------------------
D-2--4--5--------------------------------
A----------------------------------------
E----------2-2-2-2-2-2-2-2-2-2-2-2-2-2---

Riff 3 twice

Riff 7 4x

A-5-0-4-0-5-0-4-0-5-0-4-0-5-0-4-0-3---
E-3-0-2-0-3-0-2-0-3-0-2-0-3-0-2-0-1---

Riff 4 once
Riff 2 4x
Riff 3 4x
Riff 7 4x
Riff 3 twice
Comments