Metal Church - Gods Of Wrath Chords & Tabs

 

Gods Of Wrath Chords & Tabs

Metal Church Chords & Tabs

Version: 1 Type: Tab 0 ratings
1 star 2 stars 3 stars 4 stars 5 stars
comments

Gods Of Wrath Tab

   
Artist:Metal Church
Album:Metal Church
Song:Gods Of Wrath

RIFF A
E |---------------------|
B |---4-0---------------|
G |-------1-3---1-3-1---|
D |---------------------|
A |---------------------|
E |---------------------|
RIFF B
E |---------------------|-------------|
B |---------------------|-------------|
G |-------4-------4-----|-------------|
D |-----4---4---4---4---|-------------|
A |---2-------1---------|---1---2-1---|
E |---------------------|-----2-------|
RIFF C
E |---4-----4-----4-----|-----4-----5---4-----|-----4-----4-----4---|
B |-----5-----5-----5---|-------5-----5---5---|-------5-----5-------|
G |-------6-----6-------|---6-----6-----------|---6-----6-----6-----|
D |---------------------|---------------------|---------------------|
A |---------------------|---------------------|---------------------|
E |---------------------|---------------------|---------------------|

E |-------4---5---4-----|-----4-----4-----4---|-------5-----|
B |---5-----5---5---5---|-------5-----5-------|---5-----5---|
G |-----6---------------|---6-----6-----6-----|-----6-------|
D |---------------------|---------------------|-------------|
A |---------------------|---------------------|-------------|
E |---------------------|---------------------|-------------|
RIFF D
E |------------------------|-------------------|
B |------------------------|-------------------|
G |------------------------|-------------------|
D |-----------------4------|---4--6------------|
A |---6----3--4--6--2--6---|---2--4--2--2--4---|
E |---4----1--2--4-----4---|---------0--0--2---|
RIFF E
E |------------------|---------------|------------------|--------------|
B |------------------|---------------|------------------|--------------|
G |------------------|---------------|------------------|--------------|
D |------------------|---------------|------------------|--------------|
A |---2---2-2--2-2---|---2--2-2--2---|---4---4-4--4-4---|---4--4-4--4--|
E |---0---0-0--0-0---|---0--0-0--0---|---2---2-2--2-2---|---2--2-2--2--|
RIFF F
E |-------------------------------|----------------------------------|
B |-------------------------------|----------------------------------|
G |-------------------------------|----------------------------------|
D |-------------------------------|----------------------------------|
A |---6---------------------------|--(6)-----------------------------|
E |---4---------------------------|--(4)-----------------------------|

E |-------------------------------|----------------------------------|
B |-------------------------------|----------------------------------|
G |-------------------------------|----------------------------------|
D |-------------------------------|----------------------------------|
A |---4---------------------------|--(4)-----------------------------|
E |---2---------------------------|--(2)-----------------------------|
[ Tab from: http://www.guitartabs.cc/tabs/m/metal_church/gods_of_wrath_tab.html ]
E |-------------------------------|----------------------------------|
B |-------------------------------|----------------------------------|
G |-------------------------------|----------------------------------|
D |-------------------------------|----------------------------------|
A |---2---------------------------|--(2)-----------------------------|
E |---0---------------------------|--(0)-----------------------------|

E |-------------------------------|----------------------------------|
B |-------------------------------|----------------------------------|
G |-------------------------------|----------------------------------|
D |-------------------------------|----------------------------------|
A |---4---------------------------|--(4)-----------------------------|
E |---2---------------------------|--(2)-----------------------------|
RIFF G
E |-------------------------------|-------------------------------|
B |-------------------------------|-------------------------------|
G |-------------------------------|-------------------------------|
D |-------------------------------|-------------------------------|
A |---6------6--------------------|---6------6--------------------|
E |---4------4--------------------|---4------4--------------------|

E |-------------------------------|-------------------------------|
B |-------------------------------|-------------------------------|
G |-------------------------------|-------------------------------|
D |-------------------------------|-------------------------------|
A |---6------6--------------------|---6------6--------------------|
E |---4------4--------------------|---4------4--------------------|

E |-------------------------------|----------------|
B |-------------------------------|----------------|
G |-------------------------------|----------------|
D |---4------------3--------------|---3-----4--3---|
A |---2------------1--------------|---1--4--2--1---|
E |-------------------------------|------2---------|
RIFF H
E |---------------|---------------|-----------------|----------------|
B |---------------|---------------|-----------------|----------------|
G |---------------|---------------|-----------------|----------------|
D |---------------|---------------|-----------------|----------------|
A |---6-----------|---4-----------|---2-------------|--(2)-----------|
E |---4-----------|---2-----------|---0-------------|--(0)-----------|
RIFF ORDER:
1)	RIFF A = 4 TIMES
2)	RIFF B
3)	RIFF A = 10 TIMES
4)	RIFF B
5)	RIFF A = 2 TIMES
6)	RIFF C
7)	RIFF A = 4 TIMES
8)	RIFF B
9)	RIFF D = 8 TIMES
10)	RIFF A = 8 TIMES
11)	RIFF E
12)	RIFF D = 4 TIMES
13)	RIFF A = 8 TIMES
14)	RIFF E
15)	RIFF D = 4 TIMES
16)	RIFF F = 2 TIMES
17)	RIFF G = 4 TIMES
18)	FOUR BARS OF REST (BASS PLAYING)
19)	RIFF A = 8 TIMES
20)	RIFF E
21)	RIFF D = 8 TIMES
22)	RIFF H
23)	RIFF A = 7 TIMES 
24)	AND THE FINAL CHORD
E |---4-/----------------|
B |---4------------------|
G |---5-/----------------|
D |---6------------------|
A |---6-/----------------|
E |---4------------------|
Comments