Metal Church - Badlands Chords & Tabs

 

Badlands Chords & Tabs

Metal Church Chords & Tabs

Version: 1 Type: Tab 0 ratings
1 star 2 stars 3 stars 4 stars 5 stars
comments

Badlands Tab

   
                                    BADLANDS
                           As recorded by Metal Church
                   (From the 1989 Album BLESSING IN DISGUISE)

Words by Wells, Vanderhoof,Howe

Music by Craig Wells, Kurdt Vanderhoof, Mike Howe


Gtr I (E A D G B E) - 'Clean Guitar'
Gtr II (E A D G B E) - 'Dist. Guitar'
Gtr III (E A D G B E) - 'Solo Guitar 1'
Gtr IV (E A D G B E) - 'Dist. 2'
Gtr V (E A D G B E) - 'Solo guitar 2'

   Intro
  
    Gtr I
                                                                 6x
||----------------^0--|-(0)--------|---------------^0--|-(0)-----||
||o-------0-(0)---^0--|-(0)--------|-------0-(0)---^0--|-(0)----o||
||------4-------4-^2--|-(2)--------|-----5-------5-^4--|-(4)-----||
||----2-----------^3--|-(3)--------|---3-----------^5--|-(5)-----||
||o-0-----------------|------------|-0-----------------|--------o||
||--------------------|------------|-------------------|---------||


  6.
  Gtr II
|------------|------------||------------------|-------------------|
|------------|------------||o-----------------|-------------------|
|-3---2------|------------||--4-----4-----2---|-(2)---------------|
|-3---2---3--|-(3)--------||--2-----2-----3---|-(3)---------------|
|-1---0---3--|-(3)--------||o-----------------|-------------------|
|---------1--|-(1)--------||------------------|-------------------|
|
|                             Gtr IV
|                             PM--------------------------------|
|------------|------------||------------------|-------------------|
|------------|------------||o-----------------|-------------------|
|------------|------------||------------------|-------------------|
|------------|------------||------------------|-------------------|
|------------|------------||o-0-0-0-0-0-0-0-0-|--0--0-0-0-0-0-0-0-|
|------------|------------||------------------|-------------------|


|-----------------|-------------------|-----------------|-------------------|
|-----------------|-------------------|-----------------|-------------------|
|-5-----5-----4---|-(4)---------------|-4-----4-----2---|-(2)---------------|
|-3-----3-----5---|-(5)---------------|-2-----2-----3---|-(3)---------------|
|-----------------|-------------------|-----------------|-------------------|
|-----------------|-------------------|-----------------|-------------------|
|
| PM----------------------------------------------------------------------|
|-----------------|-------------------|-----------------|-------------------|
|-----------------|-------------------|-----------------|-------------------|
|-----------------|-------------------|-----------------|-------------------|
|-----------------|-------------------|-----------------|-------------------|
|-0-0-0-0-0-0-0-0-|--0--0-0-0-0-0-0-0-|-0-0-0-0-0-0-0-0-|--0--0-0-0-0-0-0-0-|
|-----------------|-------------------|-----------------|-------------------|


                             3/4       4/4
|------------|-------------||---------|------|
|------------|------------o||---------|------|
|-3---2------|-------------||-3---2---|-9----|
|-3---2---3--|-(3)---------||-3---2---|-9----|
|-1---0---3--|-(3)--------o||-1---0---|-7----|
|---------1--|-(1)---------||---------|------|


||--------------------|------------|---------------------|--------|
||o-------------------|------------|---------------------|--------|
||--2-----------------|-(2)--------|-(2)-----------------|-(2)----|
||--2-----------------|-(2)--------|-(2)-----------------|-(2)----|
||o-0-----------------|-(0)--------|-(0)-----------------|-(0)----|
||--------------------|------------|---------------------|--------|
|
|   Gtr I
||----------------^0--|-(0)--------|-----------------^0--|-(0)----|
||o-------0-(0)---^0--|-(0)--------|---------0-(0)---^0--|-(0)----|
||------4-------4-^2--|-(2)--------|-------5-------5-^4--|-(4)----|
||----2-----------^3--|-(3)--------|-----3-----------^5--|-(5)----|
||o-0-----------------|------------|--0------------------|--------|
||--------------------|------------|---------------------|--------|


  Gtr I
|---------------^0--|-(0)--------|---------------^0--|-(0)----|
|-------0-(0)---^0--|-(0)--------|-------0-(0)---^0--|-(0)----|
|-----4-------4-^2--|-(2)--------|-----5-------5-^4--|-(4)----|
|---2-----------^3--|-(3)--------|---3-----------^5--|-(5)----|
|-0-----------------|------------|-0-----------------|--------|
|-------------------|------------|-------------------|--------|


 1st, 2nd Verses
|---------------^0--|-(0)--------|---------------^0--|-(0)----|
|-------0-(0)---^0--|-(0)--------|-------0-(0)---^0--|-(0)----|
|-----4-------4-^2--|-(2)--------|-----5-------5-^4--|-(4)----|
|---2-----------^3--|-(3)--------|---3-----------^5--|-(5)----|
|-0-----------------|------------|-0-----------------|--------|
|-------------------|------------|-------------------|--------|


|---------------^0--|-(0)--------|---------------^0--|-(0)----|
|-------0-(0)---^0--|-(0)--------|-------0-(0)---^0--|-(0)----|
|-----4-------4-^2--|-(2)--------|-----5-------5-^4--|-(4)----|
|---2-----------^3--|-(3)--------|---3-----------^5--|-(5)----|
|-0-----------------|------------|-0-----------------|--------|
|-------------------|------------|-------------------|--------|


|--------------^0--|-(0)--------|--------------^0--|-(0)----|
|--------------^0--|-(0)--------|--------------^0--|-(0)----|
|-------0-(0)--^0--|-(0)--------|-------0-(0)--^2--|-(2)----|
|-----2--------^2--|-(2)--------|-----2--------^3--|-(3)----|
|---2----------^3--|-(3)--------|---2--------------|--------|
|-0----------------|------------|-0----------------|--------|


|--------------^0--|-(0)--------|--------------^0--|-(0)----|
|--------------^0--|-(0)--------|--------------^0--|-(0)----|
|-------0-(0)--^0--|-(0)--------|-------0-(0)--^2--|-(2)----|
|-----2--------^2--|-(2)--------|-----2--------^3--|-(3)----|
|---2----------^3--|-(3)--------|---2--------------|--------|
|-0----------------|------------|-0----------------|--------|


  Gtr II
  PM|    PM|   PM|     PM|   PM|             PM   PM     PM   PM
|------------------|----------------|---------------|--------------|
|------------------|----------------|---------------|--------------|
|-----11-----9-----|-7-----9-----7--|-6-6-6----6----|-6----6----6--|
|---9------9-----9-|-----9-----9----|-6-6-6----6----|-6----6----6--|
|-7------7-----7---|---7-----7------|-4-4-4--4-4--4-|-4--4-4--4-4--|
|------------------|----------------|---------------|--------------|


  PM|    PM|   PM|     PM|   PM|
|------------------|----------------|--------------|-------------||
|------------------|----------------|--------------|-------------||
|-----11-----9-----|-7-----9-----7--|-6-6-6----6-6-|-6---6-6--6--||
|---9------9-----9-|-----9-----9----|-6-6-6----6-6-|-6---6-6--6--||
|-7------7-----7---|---7-----7------|-4-4-4----4-4-|-4---4-4--4--||
|------------------|----------------|--------------|-------------||


 Pre-Chorus
  PM|    PM|   PM|     PM|   PM|
|------------------|----------------|
|------------------|----------------|
|-----11-----9-----|-7-----9-----7--|
|---9------9-----9-|-----9-----9----|
|-7------7-----7---|---7-----7------|
|------------------|----------------|


  PM      PM      PM        PM      PM
|----------------------|-----------------------|
|----------------------|-----------------------|
|----------------------|-----------------------|
|---10-11---11-10---10-|-11---11-10---10-11-10-|
|-8-------8-------8----|----8-------8----------|
|----------------------|-----------------------|


  PM|    PM|   PM|     PM|   PM|
|------------------|----------------|------------|--------||
|------------------|----------------|------------|--------||
|-----11-----9-----|-7-----9-----7--|------------|--------||
|---9------9-----9-|-----9-----9----|-3---3---3--|-(3)----||
|-7------7-----7---|---7-----7------|-3---3---3--|-(3)----||
|------------------|----------------|-1---1---1--|-(1)----||


 Chorus
  $
  Gtrs I, II
|------------|-------------------|------------|-------------------|
|------------|-------------------|------------|-------------------|
|-7---7---3--|-(3)---------------|-7---7---3--|-(3)---------------|
|-7---7---3--|-(3)---------------|-7---7---3--|-(3)---------------|
|-5---5---1--|-(1)---------------|-5---5---1--|-(1)---------------|
|------------|-------------------|------------|-------------------|
|
|              Gtr IV
|------------|-------------------|------------|-------------------|
|------------|-------------------|------------|-------------------|
|------------|-------------------|------------|-------------------|
|------------|-------------------|------------|-------------------|
|------------|-----0-1p0-1p0-1p0-|------------|-----0-1p0-1p0-1p0-|
|------------|-------------------|------------|-------------------|


|------------|-------------------|------------|---------------|
|------------|-------------------|------------|---6-6--6-6-6--|
|-7---7---5--|-(5)---------------|-3---2------|---5-5--5-5-5--|
|-7---7---5--|-(5)---------------|-3---2---3--|-3-3-3--3-3-3--|
|-5---5---3--|-(3)---------------|-1---0---3--|-3-------------|
|------------|-------------------|---------1--|-1-------------|
|
|------------|-------------------|------------|---------------|
|------------|-------------------|------------|---------------|
|------------|-------------------|------------|---------------|
|------------|-----3-2---3-2-----|------------|---------------|
|------------|---------3-----3-2-|------------|---------------|
|------------|-------------------|------------|---------------|


  Gtrs I, II
|------------|-------------------|------------|-------------------|
|------------|-------------------|------------|-------------------|
|-7---7---3--|-(3)---------------|-7---7---3--|-(3)---------------|
|-7---7---3--|-(3)---------------|-7---7---3--|-(3)---------------|
|-5---5---1--|-(1)---------------|-5---5---1--|-(1)---------------|
|------------|-------------------|------------|-------------------|
|
|              Gtr IV
|------------|-------------------|------------|-------------------|
|------------|-------------------|------------|-------------------|
|------------|-------------------|------------|-------------------|
|------------|-------------------|------------|-------------------|
|------------|-----0-1p0-1p0-1p0-|------------|-----0-1p0-1p0-1p0-|
|------------|-------------------|------------|-------------------|


                                       To Coda
|------------|-------------------|------------|--------|
|------------|-------------------|------------|--------|
|-7---7---5--|-(5)---------------|-3---2------|--------|
|-7---7---5--|-(5)---------------|-3---2---3--|-(3)----|
|-5---5---3--|-(3)---------------|-1---0---3--|-(3)----|
|------------|-------------------|---------1--|-(1)----|
|
|------------|-------------------|------------|--------|
|------------|-------------------|------------|--------|
|------------|-------------------|------------|--------|
|------------|-----3-2---3-2-----|------------|--------|
|------------|---------3-----3-2-|------------|--------|
|------------|-------------------|------------|--------|


            1.           2.
 3/4       4/4          4/4
                         Gtr II
|---------|-----------||----------|--------|
|---------|----------o||----------|--------|
|-3---2---|-----------||----------|--------|
|-3---2---|-2---------||-2--------|-(2)----|
|-1---0---|-2--------o||-2--------|-(2)----|
|---------|-0---------||-0--------|-(0)----|


   >
|------------||------------------|--------------------|
|------------||o-----------------|--------------------|
|------------||------------------|--------------------|
|-(2)--------||------------------|--------------------|
|-(2)--------||o-----5---7---9---|-10---12---10---9---|
|-(0)--------||--0-0---0---0---0-|----0----0----0---0-|


                                       3x
|-------------------|------------------||
|-------------------|-----------------o||
|-------------------|------------------||
|-------------------|------------------||
|-12---10---9---7---|-10---9---7---5--o||
|----0----0---0---0-|----0---0---0-----||


|-----------------|--------------------|
|-----------------|--------------------|
|-----------------|--------------------|
|-----------------|--------------------|
|-----5---7---9---|-10---12---10---9---|
|-0-0---0---0---0-|----0----0----0---0-|


 Bridge
  Gtr II
|-----------------|--------------------|-------------------|-----------------|
|-----------------|--------------------|-------------------|-----------------|
|-----------------|--------------------|-------------------|-----------------|
|-----4---5---7---|--9---10----9---7---|-10----9---7---5---|--9---7---5---4--|
|-----5---7---9---|-10---12---10---9---|-12---10---9---7---|-10---9---7---5--|
|-0-0-------------|--------------------|-------------------|-----------------|
|
|-----------------|--------------------|-------------------|-----------------|
|-----------------|--------------------|-------------------|-----------------|
|-----------------|--------------------|-------------------|-----------------|
|-----------------|--------------------|-------------------|-----------------|
|-----5---7---9---|-10---12---10---9---|-12---10---9---7---|-10---9---7---5--|
|-0-0---0---0---0-|----0----0----0---0-|----0----0---0---0-|----0---0---0----|


  Gtr II
|-----------------|--------------------|-------------------|-----------------|
|-----------------|--------------------|-------------------|-----------------|
|-----------------|--------------------|-------------------|-----------------|
|-----4---5---7---|--9---10----9---7---|-10----9---7---5---|--9---7---5---4--|
|-----5---7---9---|-10---12---10---9---|-12---10---9---7---|-10---9---7---5--|
|-0-0-------------|--------------------|-------------------|-----------------|
|
|-----------------|--------------------|-------------------|-----------------|
|-----------------|--------------------|-------------------|-----------------|
|-----------------|--------------------|-------------------|-----------------|
|-----------------|--------------------|-------------------|-----------------|
|-----5---7---9---|-10---12---10---9---|-12---10---9---7---|-10---9---7---5--|
|-0-0---0---0---0-|----0----0----0---0-|----0----0---0---0-|----0---0---0----|


  Gtr II
|-----------------|--------------------|-------------------|-----------------|
|-----------------|--------------------|-------------------|-----------------|
|-----------------|--------------------|-------------------|-----------------|
|-----4---5---7---|--9---10----9---7---|-10----9---7---5---|--9---7---5---4--|
|-----5---7---9---|-10---12---10---9---|-12---10---9---7---|-10---9---7---5--|
|-0-0-------------|--------------------|-------------------|-----------------|
|
|-----------------|--------------------|-------------------|-----------------|
|-----------------|--------------------|-------------------|-----------------|
|-----------------|--------------------|-------------------|-----------------|
|-----------------|--------------------|-------------------|-----------------|
|-----5---7---9---|-10---12---10---9---|-12---10---9---7---|-10---9---7---5--|
|-0-0---0---0---0-|----0----0----0---0-|----0----0---0---0-|----0---0---0----|


    Gtr II
    PM------------------------------------------------------------------|
||------------------|-----------------|-----------------|-------------------||
||o-----------------|-----------------|-----------------|------------------o||
||------------------|-----------------|-----------------|-------------------||
||------------------|-----------------|-----------------|-------------------||
||o-----------------|---------3-2-----|-----------------|---------5-3------o||
||--0-2-3-0-2-5-0-2-|-3-0-2-3-----3-2-|-0-2-3-0-2-5-0-2-|-3-0-2-3-----5-3---||


  PM------------------------------------------------------------------|
|-----------------|-----------------|-----------------|-----------------|
|-----------------|-----------------|-----------------|-----------------|
|-----------------|-----------------|-----------------|-----------------|
|-----------------|-----------------|-----------------|-----------------|
|-----------------|---------3-2-----|-----------------|---------5-3-----|
|-0-2-3-0-2-5-0-2-|-3-0-2-3-----3-2-|-0-2-3-0-2-5-0-2-|-3-0-2-3-----5-3-|
|
| Gtr IV
|-----------------|-----------------|-----------------|-----------------|
|-----------------|-----------------|-----------------|-----------------|
|-----------------|-----------------|-----------------|-----------------|
|-2---------------|-----------2---2-|-----------------|---------------2-|
|-2---------------|-----------2---2-|-----------------|---------------2-|
|-0---------------|-----------0---0-|-----------------|---------------0-|


   PM--------------------------------------------------------------------|
|--------------------|-----------------|-----------------|-----------------|
|--------------------|-----------------|-----------------|-----------------|
|--------------------|-----------------|-----------------|-----------------|
|--------------------|-----------------|-----------------|-----------------|
|--------------------|---------3-2-----|-----------------|---------5-3-----|
|--0---2-3-0-2-5-0-2-|-3-0-2-3-----3-2-|-0-2-3-0-2-5-0-2-|-3-0-2-3-----5-3-|
|
| Gtr IV
|--------------------|-----------------|-----------------|-----------------|
|--------------------|-----------------|-----------------|-----------------|
|--------------------|-----------------|-----------------|-----------------|
|-(2)\---------------|-----------2---2-|-----------------|-2---2---2---2---|
|-(2)\---------------|-----------2---2-|-----------------|-2---2---2---2---|
|-(0)\---------------|-----------0---0-|-----------------|-0---0---0---0---|


 Guitar Solo
  Gtr III
|-------------------------|----------------------------------------------|
|----------------------15-|-14-12-14b16r(14)---12------------------------|
|-----14b16---14-12-14----|-----------------------14-12-14b16-14p12---14-|
|-------------------------|----------------------------------------------|
|-------------------------|----------------------------------------------|
|-------------------------|----------------------------------------------|
|
| Gtr II
|-------------------------|----------------------------------------------|
|-------------------------|----------------------------------------------|
|-------------------------|----------------------------------------------|
|------4-------5-----7----|--9----10---------------9-----------7---------|
|------5-------7-----9----|-10----12--------------10-----------9---------|
|-0-0---------------------|----------------------------------------------|
|
|-------------------------|----------------------------------------------|
|-------------------------|----------------------------------------------|
|-------------------------|----------------------------------------------|
|-------------------------|----------------------------------------------|
|------5-------7-----9----|-10----12--------------10-----------9---------|
|-0-0-------0-----0-----0-|-----0------------0-----------0----------0----|

[ Tab from: http://www.guitartabs.cc/tabs/m/metal_church/badlands_tab.html ]
                                   ~~~
|-----------------------------------------|-15b17r======(15)------12---|
|-----------------------------------------|--------------------15------|
|-12---11---(11)b12r(11)b12==(11)-11r-----|----------------------------|
|-----------------------------------------|----------------------------|
|-----------------------------------------|----------------------------|
|-----------------------------------------|----------------------------|
|
|-----------------------------------------|----------------------------|
|-----------------------------------------|----------------------------|
|-----------------------------------------|----------------------------|
|-10----9-------------7---------------5---|--9------7-----5-----4------|
|-12---10-------------9---------------7---|-10------9-----7-----5------|
|-----------------------------------------|----------------------------|
|
|-----------------------------------------|----------------------------|
|-----------------------------------------|----------------------------|
|-----------------------------------------|----------------------------|
|-----------------------------------------|----------------------------|
|-12---10-------------9---------------7---|-10------9-----7-----5------|
|----0----0------------------------0----0-|-------0---0------0---------|


                                                                ~~~~~~~~~
|----15-12------------------------|----------------------------------------|
|----------15-12b14====(12)-12r---|-12b14====12-(12)r---12pb14r12---(12)---|
|---------------------------------|----------------------------------------|
|-14------------------------------|----------------------------------------|
|---------------------------------|----------------------------------------|
|---------------------------------|----------------------------------------|
|
| Gtr II
|---------------------------------|----------------------------------------|
|---------------------------------|----------------------------------------|
|---------------------------------|----------------------------------------|
|--------4-----5---------7--------|--9-------10----------9------------7----|
|--------5-----7---------9--------|-10-------12---------10------------9----|
|--0--0---------------------------|----------------------------------------|
|
|---------------------------------|----------------------------------------|
|---------------------------------|----------------------------------------|
|---------------------------------|----------------------------------------|
|---------------------------------|----------------------------------------|
|--------5-----7---------9--------|-10-------12---------10------------9----|
|--0--0-----0--------0----------0-|--------0----------0-----------0------0-|


|-17S19-19-19-(19)-19S==21-|-(21)-21-(21)-21---22---22--|
|--------------------------|----------------------------|
|--------------------------|----------------------------|
|--------------------------|----------------------------|
|--------------------------|----------------------------|
|--------------------------|----------------------------|
|
|--------------------------|----------------------------|
|--------------------------|----------------------------|
|--------------------------|----------------------------|
|-10-----9------7-----5----|---9-------7--------5----4--|
|-12----10------9-----7----|--10-------9--------7----5--|
|--------------------------|----------------------------|
|
|--------------------------|----------------------------|
|--------------------------|----------------------------|
|--------------------------|----------------------------|
|--------------------------|----------------------------|
|-12----10------9-----7----|--10-------9--------7----5--|
|-----0-----0-------0----0-|-------0---------0----0-----|


|----22-22----22-22----22-|----20-(20)-20---(20)-20----------19-|
|-19-------19-------19----|-19-19-(19)-19---(19)-19-19-20-22----|
|-------------------------|-------------------------------------|
|-------------------------|-------------------------------------|
|-------------------------|-------------------------------------|
|-------------------------|-------------------------------------|
|
| Gtr II
|-------------------------|-------------------------------------|
|-------------------------|-------------------------------------|
|-------------------------|-------------------------------------|
|--------4-----5-----7----|--9-----10---------9------7----------|
|--------5-----7-----9----|-10-----12--------10------9----------|
|--0--0-------------------|-------------------------------------|
|
|-------------------------|-------------------------------------|
|-------------------------|-------------------------------------|
|-------------------------|-------------------------------------|
|-------------------------|-------------------------------------|
|--------5-----7-----9----|-10-----12--------10------9----------|
|--0--0-----0-----0-----0-|-----0---------0-------0--------0----|


                                                                                  ~~
|-20-22-20-19-20-19-------------------19-20-22-19-|-------------------------------------|
|-------------------22-20-22-19-20-22-------------|-22-19-22b24r(22)-19-----------------|
|-------------------------------------------------|---------------------21-19-21-19-----|
|-------------------------------------------------|-------------------------------------|
|-------------------------------------------------|-------------------------------------|
|-------------------------------------------------|-------------------------------------|
|
|-------------------------------------------------|-------------------------------------|
|-------------------------------------------------|-------------------------------------|
|-------------------------------------------------|-------------------------------------|
|-10-----------9-----------7-----------5----------|--9------------7------------5----4---|
|-12----------10-----------9-----------7----------|-10------------9------------7----5---|
|-------------------------------------------------|-------------------------------------|
|
|-------------------------------------------------|-------------------------------------|
|-------------------------------------------------|-------------------------------------|
|-------------------------------------------------|-------------------------------------|
|-------------------------------------------------|-------------------------------------|
|-12----------10-----------9-----------7----------|-10------------9------------7----5---|
|--------0-----------0-----------0-----------0----|--------0-------------0--------0-----|


|--------------------------------|-------------------------22b24========|
|-22b24r====(22)-19--------------|--------------------------------------|
|-------------------21b23r==(21)-|-19-21-19b21==(19)-(19)r--------------|
|--------------------------------|--------------------------------------|
|--------------------------------|--------------------------------------|
|--------------------------------|--------------------------------------|
|
| Gtr II
|--------------------------------|--------------------------------------|
|--------------------------------|--------------------------------------|
|--------------------------------|--------------------------------------|
|---------4-------5-------7------|--9----10-----------------9-------7---|
|---------5-------7-------9------|-10----12----------------10-------9---|
|--0----0------------------------|--------------------------------------|
|
|--------------------------------|--------------------------------------|
|--------------------------------|--------------------------------------|
|--------------------------------|--------------------------------------|
|--------------------------------|--------------------------------------|
|---------5-------7-------9------|-10----12----------------10-------9---|
|--0----0-----0------0--------0--|-----0---------------0----------0---0-|


                 ~~~~~~~~~~~~~~~~~~~~~~~
|-(22)-(22)rp19------------------|--------------------|
|---------------22b24-(22)-------|-(22)---------------|
|--------------------------------|--------------------|
|--------------------------------|--------------------|
|--------------------------------|--------------------|
|--------------------------------|--------------------|
|
|--------------------------------|--------------------|
|--------------------------------|--------------------|
|--------------------------------|--------------------|
|--10---------9---------7----5---|---9----7---5---4---|
|--12--------10---------9----7---|--10----9---7---5---|
|--------------------------------|--------------------|
|
|--------------------------------|--------------------|
|--------------------------------|--------------------|
|--------------------------------|--------------------|
|--------------------------------|--------------------|
|--12--------10---------9----7---|--10----9---7---5---|
|--------0-------0---------0---0-|------0---0---0-----|


    Gtr II
                                                                  4x
||----------------|--------------|---------------|----------------||
||o---------------|--------------|---------------|---------------o||
||----------------|--------------|---------------|----------------||
||------4----4----|-4----4----4--|-----4----4----|-4---5----------||
||o-----5----5----|-5----5----5--|-----5----5----|-5---3--2------o||
||--0-0----0----0-|----0----0----|-0-0----0----0-|----------3-2---||


                                                   1.
||------------------|----------|-----------------|-------||
||o-----------------|----------|-----------------|------o||
||------4-----4-----|-2--------|-----5-----5-----|-4-----||
||------2-----2-----|-3--------|-----3-----3-----|-5-----||
||o-0-0---0-0---0-0-|----------|-0-0---0-0---0-0-|------o||
||------------------|----------|-----------------|-------||


  2.
|----------||-----------------|----------|-----------------|------|
|----------||-----------------|----------|-----------------|------|
|-4--------||-----4-----4-----|-2--------|-----5-----5-----|-4----|
|-5--------||-----2-----2-----|-3--------|-----3-----3-----|-5----|
|----------||-0-0---0-0---0-0-|----------|-0-0---0-0---0-0-|------|
|----------||-----------------|----------|-----------------|------|


                                               D.S. al Coda
|-----------------|----------|------------|-----------------||
|-----------------|----------|------------|-----------------||
|-----4-----4-----|-2--------|-3---2------|-----5-5--5-5-5--||
|-----2-----2-----|-3--------|-3---2---3--|-(3)-5-5--5-5-5--||
|-0-0---0-0---0-0-|----------|-1---0---3--|-(3)-3-3--3-3-3--||
|-----------------|----------|---------1--|-(1)-------------||


  &
|---------------|------------|-------------------|
|---------------|------------|-------------------|
|---5-5--5-5-5--|-7---7---3--|-(3)---------------|
|-3-5-5--5-5-5--|-7---7---3--|-(3)---------------|
|-3-3-3--3-3-3--|-5---5---1--|-(1)---------------|
|-1-------------|------------|-------------------|
|
| Gtr IV
|---------------|------------|-------------------|
|---------------|------------|-------------------|
|---------------|------------|-------------------|
|---------------|------------|-------------------|
|---------------|------------|-----0-1p0-1p0-1p0-|
|---------------|------------|-------------------|
|
|---------------|------------|-------------------|
|---------------|------------|-------------------|
|---------------|------------|-------------------|
|---------------|------------|-------------------|
|---------------|------------|-------------------|
|---------------|------------|-------------------|


|-------------|-------------------|
|-------------|-------------------|
|-7---7----3--|-(3)---------------|
|-7---7----3--|-(3)---------------|
|-5---5----1--|-(1)---------------|
|-------------|-------------------|
|
|-------------|-------------------|
|-------------|-------------------|
|-------------|-------------------|
|-------------|-------------------|
|-------------|-----0-1p0-1p0-1p0-|
|-------------|-------------------|
|
| Gtrs III, V
|-7---5-------|-------------------|
|--------8-6--|-(6)---------------|
|-------------|-------------------|
|-------------|-------------------|
|-------------|-------------------|
|-------------|-------------------|


|-------------|-------------------|-------------|-----------------------------|
|-------------|-------------------|-------------|-----------------------------|
|-7---7----5--|-(5)---------------|-3---2-------|-------5--5----------5--5-5--|
|-7---7----5--|-(5)---------------|-3---2----3--|--(3)--5--5----------5--5-5--|
|-5---5----3--|-(3)---------------|-1---0----3--|--(3)--3--3----------3--3-3--|
|-------------|-------------------|----------1--|--(1)------------------------|
|
|-------------|-------------------|-------------|-----------------------------|
|-------------|-------------------|-------------|-----------------------------|
|-------------|-------------------|-------------|-----------------------------|
|-------------|-----3-2---3-2-----|-------------|-----------------------------|
|-------------|---------3-----3-2-|-------------|-----------------------------|
|-------------|-------------------|-------------|-----------------------------|
|
|-------------|-------------------|-8---7---15--|-(15)-13---------------------|
|-3---1---/6--|--5----------------|-8---7---15--|-(15)-13---------------------|
|-2---0---/5--|--4----------------|-------------|---------15b17r(15)p13-15----|
|-------------|-------------------|-------------|---------14b16r(14)p12-14----|
|-------------|-------------------|-------------|-----------------------------|
|-------------|-------------------|-------------|-----------------------------|


|-----------------|--------------------------|
|-----------------|--------------------------|
|--7------7----3--|--(3)---------------------|
|--7------7----3--|--(3)---------------------|
|--5------5----1--|--(1)---------------------|
|-----------------|--------------------------|
|
|-----------------|--------------------------|
|-----------------|--------------------------|
|-----------------|--------------------------|
|-----------------|--------------------------|
|-----------------|------0---1p==0--1p0--1p0-|
|-----------------|--------------------------|
|
|-----------------|--------------------------|
|-10-----10---10--|-(10)---(10)/---10---10---|
|-----------------|--------------------------|
|-10-12-----------|--------------------------|
|-----------------|--------------------------|
|-----------------|--------------------------|


|----------------|-------------------|
|----------------|-------------------|
|--7----7----3---|-(3)---------------|
|--7----7----3---|-(3)---------------|
|--5----5----1---|-(1)---------------|
|----------------|-------------------|
|
|----------------|-------------------|
|----------------|-------------------|
|----------------|-------------------|
|----------------|-------------------|
|----------------|-----0-1p0-1p0-1p0-|
|----------------|-------------------|
|
|                  Gtr III
|----------------|-------------------|
|-10-------------|---------8-6-5-6-5-|
|--5-7--5-7--7-5-|--7----7-----------|
|----------------|-------------------|
|----------------|-------------------|
|----------------|-------------------|


|-----------------|-------------------|-----------------|-----------------|
|-----------------|-------------------|-----------------|-----------------|
|-7-----7-----5---|-(5)---------------|--3-----2--------|-----5-5--5-5-5--|
|-7-----7-----5---|-(5)---------------|--3-----2----3---|-(3)-5-5--5-5-5--|
|-5-----5-----3---|-(3)---------------|--1-----0----3---|-(3)-3-3--3-3-3--|
|-----------------|-------------------|-------------1---|-(1)-------------|
|
|-----------------|-------------------|-----------------|-----------------|
|-----------------|-------------------|-----------------|-----------------|
|-----------------|-------------------|-----------------|-----------------|
|-----------------|-----3-2---3-2-----|-----------------|-----------------|
|-----------------|---------3-----3-2-|-----------------|-----------------|
|-----------------|-------------------|-----------------|-----------------|
|
|-----------------|-------------------|-----------------|-----------------|
|-------5-6-5-----|-------------------|-----------------|-----------------|
|-7-5-7-------7-5-|--7--5---5---------|-----------------|-----------------|
|-----------------|-------8---8-7-8-7-|-(7)--5---5--8-7-|-----------------|
|-----------------|-------------------|--------8--------|-----------------|
|-----------------|-------------------|-----------------|-----------------|


|------------|-----|
|------------|-----|
|-7---7---3--|-----|
|-7---7---3--|-----|
|-5---5---1--|-----|
|------------|-----|
|
|------------|-----|
|------------|-----|
|-9---9---7--|-----|
|------------|-----|
|------------|-----|
|------------|-----|


||--------------|------------|--------------|--------|
||o-------------|------------|--------------|--------|
||--7---7----3--|-(3)--------|-7---7-----5--|-(5)----|
||--7---7----3--|-(3)--------|-7---7-----5--|-(5)----|
||o-5---5----1--|-(1)--------|-5---5-----3--|-(3)----|
||--------------|------------|--------------|--------|
|
|   Gtrs III, V
||--7---5-------|------------|--------------|--------|
||o--------8-6--|-(6)--------|-3---1--6-/5--|-(5)----|
||--------------|------------|-2---0--5-/4--|-(4)----|
||--------------|------------|--------------|--------|
||o-------------|------------|--------------|--------|
||--------------|------------|--------------|--------|


|-------------|-----------------------------|------------|---------||
|-------------|-----------------------------|------------|--------o||
|-3---2-------|-------5--5----------5--5-5--|-7---7---3--|-(3)-----||
|-3---2----3--|--(3)--5--5----------5--5-5--|-7---7---3--|-(3)-----||
|-1---0----3--|--(3)--3--3----------3--3-3--|-5---5---1--|-(1)----o||
|----------1--|--(1)------------------------|------------|---------||
|
|                                             Gtr III
|-8---7---15--|-(15)-13---------------------|------------|---------||
|-8---7---15--|-(15)-13---------------------|------------|--------o||
|-------------|---------15b17r(15)p13-15----|-9---9---7--|-(7)-----||
|-------------|---------14b16r(14)p12-14----|------------|---------||
|-------------|-----------------------------|------------|--------o||
|-------------|-----------------------------|------------|---------||


Tablature Legend
----------------
 h   - hammer-on
 p   - pull-off
 b   - bend
 pb  - pre-bend
 r   - bend release (if no number after the r, then release immediately)
 /\  - slide into or out of (from/to "nowhere")
 s   - legato slide
 S   - shift slide
  - natural harmonic
[n]  - artificial harmonic
n(n) - tapped harmonic
 ~   - vibrato
 tr  - trill
 T   - tap
 TP  - trem. picking
 PM  - palm muting
\n/  - tremolo bar dip; n = amount to dip
 \n  - tremolo bar down
 n/  - tremolo bar up
/n\  - tremolo bar inverted dip
 =   - hold bend; also acts as connecting device for hammers/pulls
 <>  - volume swell (louder/softer)
 x   - on rhythm slash represents muted slash
 o   - on rhythm slash represents single note slash

Misc Legend
-----------
 |  - bar
||  - double bar
||o - repeat start
o|| - repeat end
*|  - double bar (ending)
 :  - bar (freetime)
 $  - Segno
 &  - Coda
Comments