Metal Church - Anthem To The Estranged Chords & Tabs

 

Anthem To The Estranged Chords & Tabs

Metal Church Chords & Tabs

Version: 1 Type: Tab 0 ratings
1 star 2 stars 3 stars 4 stars 5 stars
comments

Anthem To The Estranged Tab

   
                             ANTHEM TO THE ESTRANGED
                           As recorded by Metal Church
                   (From the 1989 Album BLESSING IN DISGUISE)

Music by Craig Wells and Kurdt Vanderhoof


          E5                   C5                  E5VII                 F5
      0 2 2 x x x          x 3 5 5 x x          x 7 9 9 x x         x 8 10 10 x x

          D5                 C5VIII                 B5                   A5
      x 5 7 7 x x         8 10 10 x x x         7 9 9 x x x          5 7 7 x x x

          G5                   F#5                  F5I
      3 5 5 x x x          2 4 4 x x x          1 3 3 x x x

Gtr I (E A D G B E) - 'Acoustic'
Gtr II (E A D G B E) - 'Rhythm 1'
Gtr III (E A D G B E) - 'Rhythm 2'
Gtr IV (E A D G B E) - 'Lead Guitar'

   Intro
    Moderate Rock 
    Em                                  Am7                       Em7/A
   
    Gtr I
||----------0-------|---------0-------|---------0-------|---------0--------|
||o-----8-----8-----|-----8-----8-----|-----1-----1-----|-----1-----0------|
||--------9-----9---|-------9-----9---|-------0-----0---|-------0-----0----|
||----------------9-|---------------9-|---2-----------2-|---2-----------0--|
||o---7-------------|---7-------------|-0---------------|-0----------------|
||--0---------------|-0---------------|-----------------|------------------|


  Cmaj7+11          Em/B              Em
                                                                           3x
|---------0-------|---------0-------|-----------------|--------------------||
|-----7-----7-----|-----8-----8-----|-----0---3-------|-1-----0-(0)---0---o||
|-------0-----0---|-------9-----9---|-------0---0-----|---0---------0---0--||
|---------------9-|---9-----------9-|-------------2---|-----2--------------||
|---9-------------|-----------------|---2-----------2-|-------------------o||
|-8---------------|-7---------------|-0---------------|--------------------||


   Verse
    Dmadd9+5/F                          Dmadd2
||----------0-------|---------0-------|---------0-------|---------0--------|
||o-----6-----6-----|-----6-----6-----|-----6-----6-----|-----6-----6------|
||--------7-----7---|-------7-----7---|-------7-----7---|-------7-----7----|
||----8-----------8-|---8-----------8-|---7-----------7-|---7-----------7--|
||o-8---------------|-8---------------|-5---------------|-5----------------|
||------------------|-----------------|-----------------|------------------|


  Dmadd9+5/F                          Dmadd2
|---------0-------|---------0-------|---------0-------|---------0-------|
|-----6-----6-----|-----6-----6-----|-----6-----6-----|-----6-----6-----|
|-------7-----7---|-------7-----7---|-------7-----7---|-------7-----7---|
|---8-----------8-|---8-----------8-|---7-----------7-|---7-----------7-|
|-8---------------|-8---------------|-5---------------|-5---------------|
|-----------------|-----------------|-----------------|-----------------|


  Cmaj7   Cmaj7/B   Em/A              G                         G/F#
|-----------------|---------0-------|-----3---2---0---|-----------------|
|-----0-------0---|-----0-----0-----|-------0---0---0-|-3---1-------0---|
|-------5-------5-|-------0-----0---|-----------------|---0---0-------0-|
|---5-------5-----|---2-----------2-|---0-------------|-----------0-----|
|-3-------2-------|-0---------------|-----------------|-----------------|
|-----------------|-----------------|-3---------------|---------2-------|


                                       1.
  Em
|-----------------|-------------------|-----------------|--------------------||
|-----0---3-------|-1-----0-(0)---0---|-----0---3-------|-1-----0-(0)---0---o||
|-------0---0-----|---0---------0---0-|-------0---0-----|---0---------0---0--||
|-------------2---|-----2-------------|-------------2---|-----2--------------||
|---2-----------2-|-------------------|---2-----------2-|-------------------o||
|-0---------------|-------------------|-0---------------|--------------------||


  2.
|-----------------|-------------------|-----------------|
|-----0---3-------|-1-----0-(0)---0---|-----0---3-------|
|-------0---0-----|---0---------0---0-|-------0---0-----|
|-------------2---|-----2-------------|-------------2---|
|---2-----------2-|-------------------|---2-----------2-|
|-0---------------|-------------------|-0---------------|


|-------------------|-----------------|--------------------||
|-1-----0-(0)---0---|-----0---3-------|-1-----0-(0)---0----||
|---0---------0---0-|-------0---0-----|---0---------0---0--||
|-----2-------------|-------------2---|-----2--------------||
|-------------------|---2-----------2-|--------------------||
|-------------------|-0---------------|--------------------||


  N.C.(C)                           (Em)
  Gtrs II, III
  PM|   PM    ~    PM|   PM    ~    PM|   PM     ~    PM|   PM     ~
|----------------|----------------|-----------------|-----------------|
|----------------|----------------|-----------------|-----------------|
|----------------|----------------|-----------------|-----------------|
|----------------|----------------|---------9-------|---------9-------|
|-----7---7-9-7--|-----7---7-9-7--|-----9-----10-9--|-----9-----10-9--|
|-8-8---8--------|-8-8---8--------|-0-0---0---------|-0-0---0---------|


    N.C.(C)
    Gtr II
    PM|   PM     ~    PM|   PM     ~
||------------------|-----------------|
||o-----------------|-----------------|
||------------------|-----------------|
||------9---9-10-9--|-----9---9-10-9--|
||o-----------------|-----------------|
||--8-8---8---------|-8-8---8---------|
|
|   Gtr III
|   PM|   PM     ~    PM|   PM     ~
||------------------|-----------------|
||o-----------------|-----------------|
||------------------|-----------------|
||------------------|-----------------|
||o-----7---7--9-7--|-----7---7--9-7--|
||--8-8---8---------|-8-8---8---------|


  (Em)
                 ~~                  ~~
                                          3x
|-------------------|---------------------||
|-------------------|--------------------o||
|---------12-11-----|---------12-11-------||
|-----9---------12--|-----9---------12----||
|-------------------|--------------------o||
|-0-0---0-----------|-0-0---0-------------||
|
| PM|   PM       ~~   PM|   PM       ~~
|                                         3x
|-------------------|---------------------||
|-------------------|--------------------o||
|-------------------|---------------------||
|----------9--------|----------9----------||
|-----9------10--9--|-----9------10--9---o||
|-0-0---0-----------|-0-0---0-------------||


  A5  C#A5C#D5E5   B5  D#B5D#E5F#5   C5    Bb5A5        G5   F#5
  Gtrs II, III
|----------------|-----------------|-------------|--------------|
|----------------|-----------------|-------------|--------------|
|----------------|-----------------|-------------|--------------|
|-----6---6-7-9--|-----8---8-9-11--|-------------|--------------|
|-7-7-4-7-4-5-7--|-9-9-6-9-6-7--9--|-10----8--7--|-(7)--5----4--|
|-5-5---5--------|-7-7---7---------|--8----6--5--|-(5)--3----2--|


  E5
  Gtrs II, III
  |         |
  /         /

  Gtr IV
|---------|-----------12-13-15-13-12----------------------------------------------|
|---------|--12-13-15----------------15-13-12-------------------------------------|
|---------|-----------------------------------14-12-------------------------------|
|---------|-----------------------------------------15-14-12----------------------|
|---------|--------------------------------------------------15-14-13-12----------|
|---------|--------------------------------------------------------------15-14-13-|


   |                |
   /                /

                    ~~
|----------------|-------|
|----------------|-------|
|----------------|-------|
|----------------|-------|
|----------------|-/7----|
|-12---(12)s0----|-------|


  |         |
  /         /

|---------|---------|---------|-----||
|---------|---------|---------|-----||
|---------|---------|---------|-----||
|---------|---------|---------|-----||
|---------|---------|---------|-----||
|---------|---------|---------|-----||


   Verse
    C                 C/G               Em
    Gtr I
||------------------|-----------------|-----------------|------------------|
||o-----------------|-----------------|-----------------|------------------|
||------0-----0-----|-----0-----0-----|-----0---2-0-----|-----0---2-0------|
||----2---2-3---2---|---2---2-3---2---|-------2-----2---|-------2-----2----|
||o-3-------------3-|---------------3-|---2-----------2-|---2-----------0--|
||------------------|-3---------------|-0---------------|-0----------------|


  C                 C/G               Em
|-----------------|-----------------|-----------------|-----------------|
|-----------------|-----------------|-----------------|-----------------|
|-----0-----0-----|-----0-----0-----|-----0---2-0-----|-----0---2-0-----|
|---2---2-3---2---|---2---2-3---2---|-------2-----2---|-------2-----2---|
|-3-------------3-|---------------3-|---2-----------2-|---2-----------0-|
|-----------------|-3---------------|-0---------------|-0---------------|


  C5                                  E5VII
  Gtrs II, III
  | |                                 | |
  / /                                 / /

|-----------------|-----------------|-----------------|-----------------|
|-----------------|-----------------|-----------------|-----------------|
|-----0-----0-----|-----0-----0-----|-----0---2-0-----|-----0---2-0-----|
|---2---2-3---2---|---2---2-3---2---|-------2-----2---|-------2-----2---|
|-3-------------3-|---------------3-|---2-----------2-|---2-----------0-|
|-----------------|-3---------------|-0---------------|-0---------------|


  C5                                  E5
  | |
  / /

                                      Gtrs II, III
                                      PM------------------------------|
|-----------------|-----------------|-----------------|-----------------|
|-----------------|-----------------|-----------------|-----------------|
|-----0-----0-----|-----0-----0-----|-----------------|-----------------|
|---2---2-3---2---|---2---2-3---2---|-2-2-2-2-2-2-2-2-|-2-2-2-2-2-2-2-2-|
|-3-------------3-|---------------3-|-2-2-2-2-2-2-2-2-|-2-2-2-2-2-2-2-2-|
|-----------------|-3---------------|-0-0-0-0-0-0-0-0-|-0-0-0-0-0-0-0-0-|


  N.C.(C)                           (Em)
  PM|   PM    ~    PM|   PM    ~    PM|   PM     ~    PM|   PM     ~
|----------------|----------------|-----------------|-----------------|
|----------------|----------------|-----------------|-----------------|
|----------------|----------------|-----------------|-----------------|
|----------------|----------------|---------9-------|---------9-------|
|-----7---7-9-7--|-----7---7-9-7--|-----9-----10-9--|-----9-----10-9--|
|-8-8---8--------|-8-8---8--------|-0-0---0---------|-0-0---0---------|


  N.C.(C)                             (Em)
  Gtr II
  PM|   PM     ~    PM|   PM     ~                   ~~                  ~~
|-----------------|-----------------|-------------------|-------------------|
|-----------------|-----------------|-------------------|-------------------|
|-----------------|-----------------|---------12-11-----|---------12-11-----|
|-----9---9-10-9--|-----9---9-10-9--|-----9---------12--|-----9---------12--|
|-----------------|-----------------|-------------------|-------------------|
|-8-8---8---------|-8-8---8---------|-0-0---0-----------|-0-0---0-----------|
|
| Gtr III
| PM|   PM     ~    PM|   PM     ~    PM|   PM       ~~   PM|   PM       ~~
|-----------------|-----------------|-------------------|-------------------|
|-----------------|-----------------|-------------------|-------------------|
|-----------------|-----------------|-------------------|-------------------|
|-----------------|-----------------|----------9--------|----------9--------|
|-----7---7--9-7--|-----7---7--9-7--|-----9------10--9--|-----9------10--9--|
|-8-8---8---------|-8-8---8---------|-0-0---0-----------|-0-0---0-----------|


  N.C.
  Gtrs II, III
  PM------------------------------------------------------------------|
|-----------------|-----------------|-----------------|-----------------|
|-----------------|-----------------|-----------------|-----------------|
|-----------------|-----------------|-----------------|-----------------|
|-----------------|-----------------|-----------------|-----------------|
|-3-3-3-3-3-3-3-3-|-3-3-3-3-3-3-3-3-|-----------------|-----------------|
|-----------------|-----------------|-0-0-0-0-0-0-0-0-|-0-0-0-0-0-0-0-0-|


                                          E5VII
  PM------------------------------------|   PM|   PM|     PM|
|-----------------|-----------------|-----------------|----------------|
|-----------------|-----------------|-----------------|----------------|
|-----------------|-----------------|-----9-----9-----|-9-----9-(9)----|
|-----------------|-----------------|-----9-----9-----|-9-----9-(9)----|
|-3-3-3-3-3-3-3-3-|-3-3-3-3-3-3-3-3-|-----7-----7-----|-7-----7-(7)----|
|-----------------|-----------------|-0-0---0-0---0-0-|---0-0----------|


  N.C.
  PM------------------------------------------------------------------|
|-----------------|-----------------|-----------------|-----------------|
|-----------------|-----------------|-----------------|-----------------|
|-----------------|-----------------|-----------------|-----------------|
|-----------------|-----------------|-----------------|-----------------|
|-3-3-3-3-3-3-3-3-|-3-3-3-3-3-3-3-3-|-----------------|-----------------|
|-----------------|-----------------|-0-0-0-0-0-0-0-0-|-0-0-0-0-0-0-0-0-|


  F5                        D5
|-----------|-------------|----------|--------|
|-----------|-------------|----------|--------|
|-10--------|-(10)--------|-7--------|-(7)----|
|-10--------|-(10)--------|-7--------|-(7)----|
|--8--------|--(8)--------|-5--------|-(5)----|
|-----------|-------------|----------|--------|


                         1.
  C5VIIIB5     A5         G5                F#5
|------------|----------|----------|-------------|
|------------|----------|----------|-------------|
|------------|----------|----------|-------------|
|-10----9----|-7--------|-5--------|-(5)----4----|
|-10----9----|-7--------|-5--------|-(5)----4----|
|--8----7----|-5--------|-3--------|-(3)----2----|


  E5
      PM----------------------------|       PM----------------------------|
|-----------------|-------------------|-----------------|-------------------|
|-----------------|-------------------|-----------------|-------------------|
|-----------------|-------------------|-----------------|-------------------|
|-2---2-2-2-2-2-2-|-2-2-2-2--2--2-2-2-|-2---2-2-2-2-2-2-|-2-2-2-2--2--2-2-2-|
|-2---2-2-2-2-2-2-|-2-2-2-2--2--2-2-2-|-2---2-2-2-2-2-2-|-2-2-2-2--2--2-2-2-|
|-0---0-0-0-0-0-0-|-0-0-0-0--0--0-0-0-|-0---0-0-0-0-0-0-|-0-0-0-0--0--0-0-0-|
|
| Gtr I
|-----------------|-------------------|-----------------|-------------------|
|-----0---3-------|-1-----0-(0)---0---|-----0---3-------|-1-----0-(0)---0---|
|-------0---0-----|---0---------0---0-|-------0---0-----|---0---------0---0-|
|-------------2---|-----2-------------|-------------2---|-----2-------------|
|---2-----------2-|-------------------|---2-----------2-|-------------------|
|-0---------------|-------------------|-0---------------|-------------------|


|-----------------|---------------------|
|-----------------|---------------------|
|-----------------|---------------------|
|-2---------------|-(2)-----------------|
|-2---------------|-(2)-----------------|
|-0---------------|-(0)-----------------|
|
|-----------------|---------------------|
|-----0---3-------|--1------0-(0)---0---|
|-------0---0-----|-----0---------0---0-|
|-------------2---|-------2-------------|
|---2-----------2-|---------------------|
|-0---------------|---------------------|


|-------------------|----------------------||
|-------------------|---------------------o||
|-------------------|----------------------||
|-(2)---------------|-(2)------------------||
|-(2)---------------|-(2)-----------------o||
|-(0)---------------|-(0)------------------||
|
|-------------------|----------------------||
|-------0---3-------|--1------0-(0)---0---o||
|---------0---0-----|-----0---------0---0--||
|---------------2---|-------2--------------||
|-----2-----------2-|---------------------o||
|--0----------------|----------------------||


  2.
  G5                          F#5       E5
                                            PM--------|
|-----------------|-------------------|-----------------|
|-----------------|-------------------|-----------------|
|-----------------|-------------------|-----------------|
|-5---------------|-(5)-------4-------|-2---2-2-2-2-2-2-|
|-5---------------|-(5)-------4-------|-2---2-2-2-2-2-2-|
|-3---------------|-(3)-------2-------|-0---0-0-0-0-0-0-|
|
|-----3---2---0---|-------------------|-----------------|
|-------0---0---0-|--3----1-------0---|-----0---3-------|
|-----------------|-----0---0-------0-|-------0---0-----|
|---0-------------|-------------0-----|-------------2---|
|-----------------|-------------------|---2-----------2-|
|-3---------------|-----------2-------|-0---------------|


  PM--------------|       PM----------------------------|
|-------------------|-----------------|-------------------|
|-------------------|-----------------|-------------------|
|-------------------|-----------------|-------------------|
|-2-2-2-2--2--2-2-2-|-2---2-2-2-2-2-2-|-2-2-2-2--2--2-2-2-|
|-2-2-2-2--2--2-2-2-|-2---2-2-2-2-2-2-|-2-2-2-2--2--2-2-2-|
|-0-0-0-0--0--0-0-0-|-0---0-0-0-0-0-0-|-0-0-0-0--0--0-0-0-|
|
|-------------------|-----------------|-------------------|
|-1-----0-(0)---0---|-----0---3-------|-1-----0-(0)---0---|
|---0---------0---0-|-------0---0-----|---0---------0---0-|
|-----2-------------|-------------2---|-----2-------------|
|-------------------|---2-----------2-|-------------------|
|-------------------|-0---------------|-------------------|


   Bridge
    F5                          G#5        E5VII
    Gtrs II, III
    PM------------------------|              PM|   PM|     PM|
                                                                         4x
||------------------|-----------------|----------------|-----------------||
||o-----------------|-----------------|----------------|----------------o||
||------------------|-----------------|----9-----9-----|-9-----9-(9)-----||
||--3-3-3-3-3-3-3-3-|-3-3-3-3-3-6-6-6-|-6--9-----9-----|-9-----9-(9)-----||
||o-3-3-3-3-3-3-3-3-|-3-3-3-3-3-6-6-6-|-6--7-----7-----|-7-----7-(7)----o||
||--1-1-1-1-1-1-1-1-|-1-1-1-1-1-4-4-4-|-4----0-0---0-0-|---0-0-----------||


  C5
  Gtrs II, III
  ||
  //

|---15-14-12----14-12-----------|-------------------------------------|
|------------15-------15-13-12--|-------------------------------------|
|-------------------------------|-12-14-16-14--11-12-14-12--9-11-12-9-|
|-------------------------------|-------------------------------------|
|-------------------------------|-------------------------------------|
|-------------------------------|-------------------------------------|
|
|---12--------------------------|-------------------------------------|
|------15-13-12-13-12-----------|-------------------------------------|
|---------------------14-12-11--|--9-11-12-11---7--9-11--9------------|
|-------------------------------|---------------------------9-10-12-9-|
|-------------------------------|-------------------------------------|
|-------------------------------|-------------------------------------|


  E5VII
   |  |
   /  /

|-------------------------------------------------|
|-----------------------------15b17r(15)p13h15p13-|
|-(9)----14pb16r(14)p12h14p12---------------------|
|-------------------------------------------------|
|-------------------------------------------------|
|-------------------------------------------------|
|
|-------------------------------------------------|
|-----------------------------12b13r(12)p10h12p10-|
|--------11pb12r(11)p=9h11p=9---------------------|
|-(9)---------------------------------------------|
|-------------------------------------------------|
|-------------------------------------------------|


                                           ~~~~~
|---------------------17b19r(17)p15h17p15-22b24----|
|-17b19r(17)p15h17p15------------------------------|
|--------------------------------------------------|
|--------------------------------------------------|
|--------------------------------------------------|
|--------------------------------------------------|
|
|                                          ~~~~~
|--------------------------------------------------|
|-14b15r(14)p12h14p12-19b20r(19)p17h19p17-22b24----|
|--------------------------------------------------|
|--------------------------------------------------|
|--------------------------------------------------|
|--------------------------------------------------|


  C5
  ||
  //

  Gtr IV
     T              T        T        T
|---21p15p12h15h17-22p17p15-------------------------|
|---------------------------17p15h17-21p17s15p12h15-|
|---------------------------------------------------|
|---------------------------------------------------|
|---------------------------------------------------|
|---------------------------------------------------|


   T              T            T  ~~
|--------------------------------------|
|-21p17p15p12s11-----------------------|
|----------------21p16p12--------------|
|-------------------------h14-21p14----|
|--------------------------------------|
|--------------------------------------|


  Gtr IV
|---------8-----10-----12------14-|
|-----3s5---5s7----7s8----8s10----|
|---------------------------------|
|---------------------------------|
|---------------------------------|
|---------------------------------|
|
| Gtrs II, III
| PM-------------------------------
|---------------------------------|
|---------------------------------|
|---------------------------------|
|-2-2-2---2---2----2----2----2----|
|-2-2-2---2---2----2----2----2----|
|-0-0-0---0---0----0----0----0----|


                                                 Guitar Solo
                                                  C5
                                                  Gtrs II, III
                                                   |
                                                   /

|-------15----------14-15----14-------14-15-17-||-20---------------|
|-10s12----12-13-15-------17----15-17----------||------------------|
|----------------------------------------------||------------------|
|----------------------------------------------||------------------|
|----------------------------------------------||------------------|
|----------------------------------------------||------------------|
|
|                                                 Gtr I
|----------------------------------------|
|----------------------------------------------||------------------|
|----------------------------------------------||------------------|
|----------------------------------------------||------0-----0-----|
|--2-----2--2-----2-----2-----2-----2-----2----||----2---2-3---2---|
|--2-----2--2-----2-----2-----2-----2-----2----||--3-------------3-|
|--0-----0--0-----0-----0-----0-----0-----0----||------------------|


   |
   /

|-15h19p15s14----------14-15-17p15p14----------------|
|-------------15----15----------------17-15-13-12h13p|
|----------------16----------------------------------|
|----------------------------------------------------|
|----------------------------------------------------|
|----------------------------------------------------|
|
|----------------------------------------------------|
|----------------------------------------------------|
|-----------------0-----------------0----------------|
|-----------2-----------2-----3-----------2----------|
|-----------------------------------------------3----|
|--3-------------------------------------------------|


  E5VII
   |                                        |
   /                                        /

                                     ~~
|----------------------------------------|-------------------------------------------------|
|-12---12-13-12----12--------------------|----------12-13----12----------------------------|
|---------------14----14b16r(14)-12-14---|-11-12-14-------14----12-14-11-12----11----------|
|----------------------------------------|----------------------------------14----12-14-9s=|
|----------------------------------------|-------------------------------------------------|
|----------------------------------------|-------------------------------------------------|
|
|----------------------------------------|-------------------------------------------------|
|----------------------------------------|-------------------------------------------------|
|-------0--------------2------0----------|--------------0-----------2-----0----------------|
|-------------2----------------------2---|--------------------2-----------------2----------|
|----2---------------------------------2-|--------2-----------------------------------0----|
|--0-------------------------------------|--0----------------------------------------------|


  C5
   |
   /

       PM-----------------|
|--------------------------------------|
|--------------------------------------|
|--------------9-11-12-11-9----9-------|
|-10---9-10-12--------------12---12-10-|
|--------------------------------------|
|--------------------------------------|
|
|--------------------------------------|
|--------------------------------------|
|------0----------------0--------------|
|----2-------2----3----------2---------|
|--3------------------------------3----|
|--------------------------------------|


                                             E5VII
  |                                          |
  /                                          /

                                             ~
|------------------------------------------|--------------------|
|------------------------------------------|---------/5-5-5-5---|
|------------------------------------------|---------/4-4-4-4---|
|-9-10----9--------------------------------|--------------------|
|------12---10-12-9-10----9----------------|--------------------|
|----------------------12---10-12-8-10-7-8-|-7------------------|
|
|------------------------------------------|--------------------|
|------------------------------------------|--------------------|
|------------0---------------0-------------|-----0----2-0-------|
|-------2---------2-----3---------2--------|-------2--------2---|
|--------------------------------------3---|---2--------------2-|
|-3----------------------------------------|-0------------------|


                        C5
  |                     |
  /                     /

  Gtr IV
|---------------------|--------------------------------|
|---------------------|---8p7h8-10p8h10-12p10h12-13p12h|
|---------------------|--------------------------------|
|---------------------|--------------------------------|
|---------------------|--------------------------------|
|---------------------|--------------------------------|
|
|---------------------|--------------------------------|
|-3h5p3p0-3s5-3-------|--------------------------------|
|-2h4p2p0-2s4-2---5p4-|-5------------------------------|
|-----------------2p0-|-2------------------------------|
|---------------------|--------------------------------|
|---------------------|--------------------------------|
|
| Gtr I
|---------------------|--------------------------------|
|---------------------|--------------------------------|
|-------0---2-0-------|-------0----------0-------------|
|---------2-----2-----|---2------2----3--------2-------|
|---2-------------0---|-3-------------------------3----|
|-0-------------------|--------------------------------|


   |
   /

|----------------13-12-----|
|-13s15-13-12-13-------15--|
|--------------------------|
|--------------------------|
|--------------------------|
|--------------------------|
|
|--------------------------|
|--------------------------|
|--------------------------|
|--------------------------|
|--------------------------|
|--------------------------|
|
|--------------------------|
|--------------------------|
|--------0--------0--------|
|-----2-----2--3-----2-----|
|-----------------------3--|
|--3-----------------------|


  E5VII
   |                        |
   /                        /

                  ~~~~~~~~~~~~~         ~~~~~~~~~~~~~~~~
|-12--------------------|--------------------------/24-|
|----15-13-12-----------|------------------------------|
|-------------14-13-----|-(13)---13s14-13-(13)---------|
|-----------------------|------------------------------|
|-----------------------|------------------------------|
|-----------------------|------------------------------|
|
|-----------------------|------------------------------|
|-----------------------|------------------------------|
|--------0-----2--0-----|------------0------2--0-------|
|-----------2-------2---|---------------2--------2-----|
|-----2---------------2-|------2---------------------0-|
|--0--------------------|---0--------------------------|


  C5
    |                    |
    /                    /

 ~~~~~~~~~~~~~~~~~~~~~~~~~~~
|-(24)---------------|-(24)---21---22b24---(22)---22p21--|
|--------------------|-----------------------------------|
|--------------------|-----------------------------------|
|--------------------|-----------------------------------|
|--------------------|-----------------------------------|
|--------------------|-----------------------------------|
|
|--------------------|-----------------------------------|
|--------------------|-----------------------------------|
|--------0-----0-----|-----------0--------------0--------|
|------2---2-3---2---|------2------------2---3-----2-----|
|---3--------------3-|--------------------------------3--|
|--------------------|---3-------------------------------|


  E5VII
   |               |  |    |    |        |      |  | |
   /               /  /    /    /        /      /  / /
[ Tab from: http://www.guitartabs.cc/tabs/m/metal_church/anthem_to_the_estranged_tab.html ]
            ~~~~~~~~~~                   ~~~~~~~~~~
|-19b21r==(19)---(19)-----17-|-19b21r==(19)---(19)-----17-|
|----------------------------|----------------------------|
|----------------------------|----------------------------|
|----------------------------|----------------------------|
|----------------------------|----------------------------|
|----------------------------|----------------------------|
|
|----------------------------|----------------------------|
|----------------------------|----------------------------|
|-----------0------2--0------|-----------0------2--0------|
|--------------2--------2----|--------------2--------2----|
|-------2------------------2-|-------2------------------0-|
|--0-------------------------|--0-------------------------|


  F5
   |            |  | |       |            |               |      |     |
   /            /  / /       /            /               /      /     /

|-20b22===20--(20)----20r|=(20)p17-------------17------------17-17----12-----------|
|------------------------|---------20-17-20b22----20b22-(20)-------20----15p13-----|
|------------------------|-----------------------------------------------------14--|
|------------------------|---------------------------------------------------------|
|------------------------|---------------------------------------------------------|
|------------------------|---------------------------------------------------------|
|
|------------------------|---------------------------------------------------------|
|------------------------|---------------------------------------------------------|
|------------------------|---------------------------------------------------------|
|------------------------|---------------------------------------------------------|
|------------------------|---------------------------------------------------------|
|------------------------|---------------------------------------------------------|


  D5
   |                       |     |           |     |      |                  |  ||
   /                       /     /           /     /      /                  /  //

                                             ~~~~~~~~~                       ~~~~
|----------------------------------------------|------------------12h15-13-(13)----|
|-15p13----------------------------------------|---------12-13h15------------------|
|-------14p12----------------------------------|------14---------------------------|
|-------------14-13-12----12----------12----12-|-(12)------------------------------|
|----------------------15----15-12-15----15----|-----------------------------------|
|----------------------------------------------|-----------------------------------|


  C5VIII                     B5
   |                          |
   /                          /

|-17p12-------17p12-------12-------------12-----------|
|-------15p12-------15p12----15p12----12----15p12-----|
|----------------------------------14-------------14--|
|-----------------------------------------------------|
|-----------------------------------------------------|
|-----------------------------------------------------|


  A5
   |
   /

|----------12-------------12-------------------17-12----------12-------|
|-12----------15p12-13-15----15p13p12-12h13h15-------12h13h15----15p12-|
|----14p12-------------------------------------------------------------|
|----------------------------------------------------------------------|
|----------------------------------------------------------------------|
|----------------------------------------------------------------------|
|
|----------------------------------------------------------------------|
|----------------------------------------------------------------------|
|----------------------------------------------------------------------|
|----------------------------------------------------------------------|
|----------------------------------------------------------------------|
|----------------------------------------------------------------------|


  G5
   |
   /

|-17b19r==(17)b19==(17)r(17)b19==(17)r(17)----------14-15s17-----------|
|------------------------------------------14h15h17----------17p13-----|
|------------------------------------------------------------------14--|
|----------------------------------------------------------------------|
|----------------------------------------------------------------------|
|----------------------------------------------------------------------|
|
| Gtr I
|--------------------3----------------------2--------------0-----------|
|----------------------------------0--------------0--------------0-----|
|----------------------------------------------------------------------|
|-------0--------------------------------------------------------------|
|----------------------------------------------------------------------|
|--3-------------------------------------------------------------------|


                                  F#5
   |                               |
   /                               /

|-------12------------------------------12-15-12-15b17---|
|----------15-12------------------15b17------------------|
|-14b16----------14b16r(14)p12-14------------------------|
|--------------------------------------------------------|
|--------------------------------------------------------|
|--------------------------------------------------------|
|
|--------------------------------------------------------|
|--3--------------1-------------------------------0------|
|-----------0----------------0-------------------------0-|
|-------------------------------------------0------------|
|--------------------------------------------------------|
|----------------------------------2---------------------|


  E5
   |                       |
   /                       /

   ~~~~~~~~~~~~~~~~~~~~~~~~~~~
|-15b17-------24-------|-(24)---(24)b27====(24)-(24)r(24)b27====(24)----|
|----------------------|------------------------------------------------|
|----------------------|------------------------------------------------|
|----------------------|------------------------------------------------|
|----------------------|------------------------------------------------|
|----------------------|------------------------------------------------|
|
|----------------------|------------------------------------------------|
|---------0----3-------|---1-------------0--(0)-------------------0-----|
|-----------0----0-----|------0-------------------------------0------0--|
|------------------2---|----------2-------------------------------------|
|-------2------------2-|------------------------------------------------|
|--0-------------------|------------------------------------------------|


  E5
    |                            |
    /                            /

                ~~~~~~~~~~~~~~~~~~~~~~~~~~~~~~~~~~~~~
|-(24)---(24)r(24)-----------|-(24)-----------------|
|----------------------------|----------------------|
|----------------------------|----------------------|
|----------------------------|----------------------|
|----------------------------|----------------------|
|----------------------------|----------------------|
|
|----------------------------|----------------------|
|---------------0----3-------|---1------0-(0)---0---|
|------------------0---0-----|------0---------0---0-|
|------------------------2---|--------2-------------|
|------2-------------------2-|----------------------|
|---0------------------------|----------------------|


    |                    |
    /                    /

 ~~~~~~~~~~~~~~~~~~~~~~~~~~~
|-(24)---------------|-(24)-----------------|
|--------------------|----------------------|
|--------------------|----------------------|
|--------------------|----------------------|
|--------------------|----------------------|
|--------------------|----------------------|
|
|--------------------|----------------------|
|--------0---3-------|---1------0-(0)---0---|
|----------0---0-----|------0---------0---0-|
|----------------2---|--------2-------------|
|------2-----------2-|----------------------|
|---0----------------|----------------------|


  E5                                               F5I
   |                      |                         |           |
   /                      /                         /           /

|---------------------|--------------------------|-----------|--------||
|---------------------|--------------------------|-----------|--------||
|-24b28---------------|-(24)---------------(24)\-|-----------|--------||
|---------------------|--------------------------|-----------|--------||
|---------------------|--------------------------|-----------|--------||
|---------------------|--------------------------|-----------|--------||
|
|                                                               >
|---------------------|--------------------------|-----------|--------||
|---------0---3-------|---1------0-(0)---0-------|-^6--------|-(6)----||
|-----------0---0-----|------0---------0-----0---|-^7--------|-(7)----||
|-----------------2---|--------2-----------------|-^8--------|-(8)----||
|-------2-----------2-|--------------------------|-^8--------|-(8)----||
|--0------------------|--------------------------|-^6--------|-(6)----||


   Verse
    Dmadd9+5/F                          Dmadd2
    Gtr I
||----------0-------|---------0-------|---------0-------|---------0---------||
||o-----6-----6-----|-----6-----6-----|-----6-----6-----|-----6-----6------o||
||--------7-----7---|-------7-----7---|-------7-----7---|-------7-----7-----||
||----8-----------8-|---8-----------8-|---7-----------7-|---7-----------7---||
||o-8---------------|-8---------------|-5---------------|-5----------------o||
||------------------|-----------------|-----------------|-------------------||


  C5VIB5    A5        G5                        F#5
  Gtrs II, III
  |   |     |         |                 |       |
  /   /     /         /                 /       /

|---------|---------|-----3---2---0---|-----------------|
|---------|---------|-------0---0---0-|-3---1-------0---|
|---------|---------|-----------------|---0---0-------0-|
|---------|---------|---0-------------|-----------0-----|
|---------|---------|-----------------|-----------------|
|---------|---------|-3---------------|---------2-------|


  E5                                E5VII   E             E5EII E5VII
  |                 |               |   |   | | | | | |   | | | |  |    |
  /                 /               /   /   o / / / / /   / o / /  /    /

|-----------------|-------------------|-----------------|-------------------|
|-----0---3-------|-1-----0-(0)---0---|-----0---3-------|-1-----0-(0)---0---|
|-------0---0-----|---0---------0---0-|-------0---0-----|---0---------0---0-|
|-------------2---|-----2-------------|-------------2---|-----2-------------|
|---2-----------2-|-------------------|---2-----------2-|-------------------|
|-0---------------|-------------------|-0---------------|-------------------|


  N.C.(C)                           (Em)
  Gtrs II, III
  PM|   PM    ~    PM|   PM    ~    PM|   PM     ~    PM|   PM     ~
|----------------|----------------|-----------------|-----------------|
|----------------|----------------|-----------------|-----------------|
|----------------|----------------|-----------------|-----------------|
|----------------|----------------|---------9-------|---------9-------|
|-----7---7-9-7--|-----7---7-9-7--|-----9-----10-9--|-----9-----10-9--|
|-8-8---8--------|-8-8---8--------|-0-0---0---------|-0-0---0---------|


    N.C.(C)
    Gtr II
    PM|   PM     ~    PM|   PM     ~
||------------------|-----------------|
||o-----------------|-----------------|
||------------------|-----------------|
||------9---9-10-9--|-----9---9-10-9--|
||o-----------------|-----------------|
||--8-8---8---------|-8-8---8---------|
|
|   Gtr III
|   PM|   PM     ~    PM|   PM     ~
||------------------|-----------------|
||o-----------------|-----------------|
||------------------|-----------------|
||------------------|-----------------|
||o-----7---7--9-7--|-----7---7--9-7--|
||--8-8---8---------|-8-8---8---------|


  (Em)
                 ~~                  ~~
                                          3x
|-------------------|---------------------||
|-------------------|--------------------o||
|---------12-11-----|---------12-11-------||
|-----9---------12--|-----9---------12----||
|-------------------|--------------------o||
|-0-0---0-----------|-0-0---0-------------||
|
| PM|   PM       ~~   PM|   PM       ~~
|                                         3x
|-------------------|---------------------||
|-------------------|--------------------o||
|-------------------|---------------------||
|----------9--------|----------9----------||
|-----9------10--9--|-----9------10--9---o||
|-0-0---0-----------|-0-0---0-------------||


 Outro Solo
  N.C.(C)
  Gtr IV
   T            T             T              T            T             T
|-------------------------------------|--------------------------------------|
|-------------------------------------|--------------------------------------|
|-14p9p7p0h7h9-14p9p7p0h=7h9-14p9p7p0h|=4h5-14p5p4p0h4h5-14p5p=4p0h4h5-14p5p=|
|-------------------------------------|--------------------------------------|
|-------------------------------------|--------------------------------------|
|-------------------------------------|--------------------------------------|
|
| Gtr II
|  PM--|        PM            ~~~       PM--|        PM            ~~
|-------------------------------------|--------------------------------------|
|-------------------------------------|--------------------------------------|
|-------------------------------------|--------------------------------------|
|----------9--------9---10----9-------|----------9--------9---10---9---------|
|-------------------------------------|--------------------------------------|
|--8---8--------8---------------------|-8----8-------8-----------------------|
|
| Gtr III
|  PM--|        PM            ~~~       PM--|        PM            ~~
|-------------------------------------|--------------------------------------|
|-------------------------------------|--------------------------------------|
|-------------------------------------|--------------------------------------|
|-------------------------------------|--------------------------------------|
|----------7--------7----9----7-------|----------7--------7----9---7---------|
|--8---8--------8---------------------|-8----8-------8-----------------------|


  (Em)
         T            T             T             T
|-------------------------------------------------------|
|-------------------------------------------------------|
|-0h7p5-14p9p7p0h7h9-14p9p7p=0h7h9-14p9p7p=0h4h5-14p5p4p|
|-------------------------------------------------------|
|-------------------------------------------------------|
|-------------------------------------------------------|
|
|                                          ~~~
|-------------------------------------------------------|
|-------------------------------------------------------|
|---------------------------12-----11-------------------|
|--------------9--------------------------12------------|
|-------------------------------------------------------|
|-0------0------------0---------------------------------|
|
| PM----|             PM                   ~~~
|-------------------------------------------------------|
|-------------------------------------------------------|
|-------------------------------------------------------|
|----------------------------9--------------------------|
|--------------9-------------------10------9------------|
|-0------0------------0---------------------------------|


         T            T             T             T
|--------------------------------------------------------|
|--------------------------------------------------------|
|-0h4h5-14p5p4p0h4h5-14p5p4p=0h4h5-14p5p4p=0h4h5-14p5p4--|
|--------------------------------------------------------|
|--------------------------------------------------------|
|--------------------------------------------------------|
|
|                                          ~~~
|--------------------------------------------------------|
|--------------------------------------------------------|
|---------------------------12-----11--------------------|
|--------------9--------------------------12-------------|
|--------------------------------------------------------|
|-0------0------------0----------------------------------|
|
| PM----|             PM                   ~~~
|--------------------------------------------------------|
|--------------------------------------------------------|
|--------------------------------------------------------|
|----------------------------9---------------------------|
|--------------9-------------------10------9-------------|
|-0------0------------0----------------------------------|


  N.C.(C)
   T            T            T             T
|-12p7p3p0h3h7-12p7p3p0h3h7-12p7p3p=0h3h7-12p7p3p0h3h7-|
|------------------------------------------------------|
|------------------------------------------------------|
|------------------------------------------------------|
|------------------------------------------------------|
|------------------------------------------------------|
|
|  PM----|            PM                   ~~~
|------------------------------------------------------|
|------------------------------------------------------|
|------------------------------------------------------|
|---------------9------------9-----10------9-----------|
|------------------------------------------------------|
|--8-----8------------8--------------------------------|
|
|  PM----|            PM                   ~~~
|------------------------------------------------------|
|------------------------------------------------------|
|------------------------------------------------------|
|------------------------------------------------------|
|---------------7------------7------9------7-----------|
|--8-----8------------8--------------------------------|


      T            T            T             T
|--------------------------------------------------------|
|-h7-12p7p3p0h3h7-12p7p3p0h3h7-12p7p=3p0h3h7-12p7p3p0h3--|
|--------------------------------------------------------|
|--------------------------------------------------------|
|--------------------------------------------------------|
|--------------------------------------------------------|
|
|  PM-----|            PM                  ~
|--------------------------------------------------------|
|--------------------------------------------------------|
|--------------------------------------------------------|
|---------------9------------9------10-----9-------------|
|--------------------------------------------------------|
|--8------8------------8---------------------------------|
|
|  PM-----|            PM                  ~
|--------------------------------------------------------|
|--------------------------------------------------------|
|--------------------------------------------------------|
|--------------------------------------------------------|
|---------------7------------7-------9-----7-------------|
|--8------8------------8---------------------------------|


  (Em)
  T        T            T             T
|-------------------------------------------------|
|-------------------------------------------------|
|-7h9p7p0-14p9p7p0h7h9-14p9p7p=0h7h9-14p9p7p0h7h9-|
|-------------------------------------------------|
|-------------------------------------------------|
|-------------------------------------------------|
|
|                                     ~~~
|-------------------------------------------------|
|-------------------------------------------------|
|----------------------12-----11------------------|
|----------9-------------------------12-----------|
|-------------------------------------------------|
|-0---0----------0--------------------------------|
|
| PM--|          PM                   ~~~
|-------------------------------------------------|
|-------------------------------------------------|
|-------------------------------------------------|
|-----------------------9-------------------------|
|----------9------------------10------9-----------|
|-0---0----------0--------------------------------|


   T            T            T             T
|------------------------------------------------------|
|------------------------------------------------------|
|-14p9p7p0h7h9-14p9p7p0h7h9-14p9p7p=0h7h9-14p9p7p0h7h9-|
|------------------------------------------------------|
|------------------------------------------------------|
|------------------------------------------------------|
|
|                                          ~~~
|------------------------------------------------------|
|------------------------------------------------------|
|---------------------------12-----11------------------|
|---------------9-------------------------12-----------|
|------------------------------------------------------|
|--0-----0------------0--------------------------------|
|
|  PM----|            PM                   ~~~
|------------------------------------------------------|
|------------------------------------------------------|
|------------------------------------------------------|
|----------------------------9-------------------------|
|---------------9------------------10------9-----------|
|--0-----0------------0--------------------------------|


  N.C.(C)
  ~~     T      T      T      T      T      T
|-------------------------------------------------|
|-------------------------------------------------|
|-2p==0-12p7h9-12p7h9-12p7h9-12p7h9-12p7h9-12p7h9-|
|-------------------------------------------------|
|-------------------------------------------------|
|-------------------------------------------------|
|
| PM|           PM                   ~~~
|-------------------------------------------------|
|-------------------------------------------------|
|-------------------------------------------------|
|--------9-------------9-----10------9------------|
|-------------------------------------------------|
|-8-8-----------8---------------------------------|
|
| PM|           PM                   ~~~
|-------------------------------------------------|
|-------------------------------------------------|
|-------------------------------------------------|
|-------------------------------------------------|
|--------7-------------7------9------7------------|
|-8-8-----------8---------------------------------|


   T      T      T      T      T      T      T      T
|----------------------------------------------------------|
|----------------------------------------------------------|
|-12p7h9-12p7h9-12p7h9-12p7h9-12p7h9-12p7h9-12p7h9-12p7h9--|
|----------------------------------------------------------|
|----------------------------------------------------------|
|----------------------------------------------------------|
|
|  PM----|              PM                   ~~~
|----------------------------------------------------------|
|----------------------------------------------------------|
|----------------------------------------------------------|
|----------------9-------------9-----10------9-------------|
|----------------------------------------------------------|
|--8------8-------------8----------------------------------|
|
|  PM----|              PM                   ~~~
|----------------------------------------------------------|
|----------------------------------------------------------|
|----------------------------------------------------------|
|----------------------------------------------------------|
|----------------7-------------7------9------7-------------|
|--8------8-------------8----------------------------------|


  (Em)
      T            T              T                T
|----------------------------------------------------------|
|-h5-12p8p==5p0h8-17p12p==8p0h=7-12p7p===3p0h=3h7-12p7p3p0-|
|----------------------------------------------------------|
|----------------------------------------------------------|
|----------------------------------------------------------|
|----------------------------------------------------------|
|
|                                             ~~~
|----------------------------------------------------------|
|----------------------------------------------------------|
|-----------------------------12------11-------------------|
|---------------9----------------------------12------------|
|----------------------------------------------------------|
|--0------0-------------0----------------------------------|
|
|  PM-----|             PM                    ~~~
|----------------------------------------------------------|
|----------------------------------------------------------|
|----------------------------------------------------------|
|------------------------------9---------------------------|
|---------------9---------------------10------9------------|
|--0------0-------------0----------------------------------|


   T            T            T             T
|-15p7p3p0h3h7-12p7p3p0h3h7-----------------------------|
|---------------------------15p7p3p=0h3h7-12p7p3p0h3h7--|
|-------------------------------------------------------|
|-------------------------------------------------------|
|-------------------------------------------------------|
|-------------------------------------------------------|
|
|                                          ~~~
|-------------------------------------------------------|
|-------------------------------------------------------|
|---------------------------12-----11-------------------|
|---------------9-------------------------12------------|
|-------------------------------------------------------|
|--0-----0------------0---------------------------------|
|
|  PM----|            PM                   ~~~
|-------------------------------------------------------|
|-------------------------------------------------------|
|-------------------------------------------------------|
|----------------------------9--------------------------|
|---------------9------------------10------9------------|
|--0-----0------------0---------------------------------|


  N.C.(C)
   T            T           T
|-----------------------------------|
|-----------------------------------|
|-12p7p5p0h4h5-12p4p0h=5h7-12p7p5p0h|
|-----------------------------------|
|-----------------------------------|
|-----------------------------------|
|
|  PM--|        PM          ~~~
|-----------------------------------|
|-----------------------------------|
|-----------------------------------|
|----------9------9---10----9-------|
|-----------------------------------|
|--8---8--------8-------------------|
|
|  PM--|        PM          ~~~
|-----------------------------------|
|-----------------------------------|
|-----------------------------------|
|-----------------------------------|
|----------7------7----9----7-------|
|--8---8--------8-------------------|


       T        T      T    T     T    T    T
|-----------------------------------------------|
|-----------------------------------------------|
|-7h9-12p9p7h9-12p7h9-12p7-12p=9-12p9-12p9-12p==|
|-----------------------------------------------|
|-----------------------------------------------|
|-----------------------------------------------|
|
| PM--|           PM                ~
|-----------------------------------------------|
|-----------------------------------------------|
|-----------------------------------------------|
|----------9-------------9----10----9-----------|
|-----------------------------------------------|
|-8----8----------8-----------------------------|
|
| PM--|           PM                ~
|-----------------------------------------------|
|-----------------------------------------------|
|-----------------------------------------------|
|-----------------------------------------------|
|----------7-------------7-----9----7-----------|
|-8----8----------8-----------------------------|


  (Em)
     T      T    T    T    T    T    T    T
|---------------------------------------------|
|---------------------------------------------|
|-7-12p9---12p9-12p7-12p9-12p7-12p9-12p7-12p9-|
|---------------------------------------------|
|---------------------------------------------|
|---------------------------------------------|
|
|                                    ~~~
|---------------------------------------------|
|---------------------------------------------|
|-------------------------12---11-------------|
|----------------9------------------12--------|
|---------------------------------------------|
|-0------0------------0-----------------------|
|
| PM-----|            PM             ~~~
|---------------------------------------------|
|---------------------------------------------|
|---------------------------------------------|
|--------------------------9------------------|
|----------------9-------------10----9--------|
|-0------0------------0-----------------------|


   T    T    T    T    T    T    T    T
|-----------------------------------------|
|-----------------------------------------|
|-12p7-12p9-12p7-12p9-12p7-12p9-12p7-12p9-|
|-----------------------------------------|
|-----------------------------------------|
|-----------------------------------------|
|
|                                ~~~
|-----------------------------------------|
|-----------------------------------------|
|---------------------12---11-------------|
|------------9------------------12--------|
|-----------------------------------------|
|--0----0---------0-----------------------|
|
|  PM--|          PM             ~~~
|-----------------------------------------|
|-----------------------------------------|
|-----------------------------------------|
|----------------------9------------------|
|------------9-------------10----9--------|
|--0----0---------0-----------------------|


  A5  C#A5C#D5E5VIIB5  D#B5D#E5F#5   C5VIIIBb5A5        G5   F#5
  Gtrs II, III
|----------------|-----------------|-------------|--------------|
|----------------|-----------------|-------------|--------------|
|----------------|-----------------|-------------|--------------|
|-----6---6-7-9--|-----8---8-9-11--|-------------|--------------|
|-7-7-4-7-4-5-7--|-9-9-6-9-6-7--9--|-10----8--7--|-(7)--5----4--|
|-5-5---5--------|-7-7---7---------|--8----6--5--|-(5)--3----2--|


  E5
                           >
|----------|------------|--------*|
|----------|------------|--------*|
|----------|------------|--------*|
|-2--------|-(2)--------|-(2)----*|
|-2--------|-(2)--------|-(2)----*|
|-0--------|-(0)--------|-(0)----*|


Tablature Legend
----------------
 h   - hammer-on
 p   - pull-off
 b   - bend
 pb  - pre-bend
 r   - bend release (if no number after the r, then release immediately)
 /\  - slide into or out of (from/to "nowhere")
 s   - legato slide
 S   - shift slide
  - natural harmonic
[n]  - artificial harmonic
n(n) - tapped harmonic
 ~   - vibrato
 tr  - trill
 T   - tap
 TP  - trem. picking
 PM  - palm muting
\n/  - tremolo bar dip; n = amount to dip
 \n  - tremolo bar down
 n/  - tremolo bar up
/n\  - tremolo bar inverted dip
 =   - hold bend; also acts as connecting device for hammers/pulls
 <>  - volume swell (louder/softer)
 x   - on rhythm slash represents muted slash
 o   - on rhythm slash represents single note slash

Misc Legend
-----------
 |  - bar
||  - double bar
||o - repeat start
o|| - repeat end
*|  - double bar (ending)
 :  - bar (freetime)
 $  - Segno
 &  - Coda
Comments