Mest - Without You Chords & Tabs

 

Without You Chords & Tabs

Mest Chords & Tabs

Version: 1 Type: Tab 0 ratings
1 star 2 stars 3 stars 4 stars 5 stars
comments

Without You Tab

*Intro (clean and slow up and down strokes)  -Guitar 1-
E -----------------------------------------------------
B -----------------------------------------------------
G -5---------------------------------------------------
D -5----3-----7-----5----------------------------------
A -3----3-----7-----5----------------------------------
E ------1-----5-----3----------------------------------

*Intro (play in between every chord, listen to song for timing)
E ----------------------------------------------------
B ----------------------------------------------------
G -5-------5-------5-------5--------------------------
D ----------------------------------------------------
A ----------------------------------------------------
E ----------------------------------------------------

*Pre Verse
E -------------------
B -------------------
G -------------------
D -3-3-xxx-5-5-5-5---
A -3-3-xxx-5-5-5-5---
E -1-1-xxx-3-3-3-3---

*Verse (2nd time, play all the notes open) 
E -----------------------------------------------------------
B -----------------------------------------------------------
G -5-5555555555555555----------------------------------------
D -5-5555555555555555-7777777777777777-3333333333333333------
A -3-3333333333333333-7777777777777777-3333333333333333------
E --------------------5555555555555555-1111111111111111------
     _________________________pm_______________________

E -----------------------
B -----------------------
G -----------------------
D -5-x-5-5-x-5-x-5-5-----
A -5-x-5-5-x-5-x-5-5-----
E -3-x-3-3-x-3-x-3-3-----

*Chorus (listen to song for timing, its easy to figure out)
E ----------------------------------------------------
B ----------------------------------------------------
G -5--------------------------------------------------
D -5----3-----7-----5---------------------------------
A -3----3-----7-----5---------------------------------
E ------1-----5-----3---------------------------------
[ Tab from: http://www.guitartabs.cc/tabs/m/mest/without_you_tab.html ]
*Pre Solo
E ----------------------------------------------------
B ----------------------------------------------------
G ----------------------------------------------------
D -3------5------3-------xx-5-xx-5-xx-5-xx-5----------
A -3------5------3-------xx-5-xx-5-xx-5-xx-5----------
E -1(16x)-3(16x)-1(16x)--xx-3-xx-3-xx-3-xx-3----------
    ___pm___

*Solo       (guitar 2 plays chorus notes over solo)
E -------------------------------------------------------------------------
B -------------------------------------------------------------------------
G ---------------------------------------------------------5---------------
D ----------------------------------------------------5555-5---------------
A -7-5-7-5-3~--7-5-7-5-3~--7-5-7-5-3~--2222-3333-5555------3(hold note)----
E -------------------------------------------------------------------------

*Break
E ---------------------------------------------------
B ---------------------------------------------------
G -5-5-----------------------------------------------
D -5-5--------3-3----------7-7---------5-5-----------
A -3-3-xx-----3-3----------7-7---------5-5-----------
E ------------1-1--xx------5-5-xx------3-3-xx--------

*End Chorus          -Guitar 1-
E -12---------------------------
B ----13----12------------------
G -------12---------------------
D ------------------------------
A ------------------------------
E ------------------------------

*End Chorus        -Guitar 2-
E ---------------------------
B ---------------------------
G -5-------------------------
D -5-----3-----7-----5-------
A -3(8x)-3-----7-----5-------
E -------1(8x)-5(8x)-3(8x)---

Song Order:
Intro (4x)
Pre Verse (2x)
Verse (2x)
Chorus (2x)
Pre verse (1x)
Verse 2 (Bass plays alone 1x, then come in 1x)
Chorus (4x)
Pre Solo (1x)
Solo (1x)
Intro (2x)
Break (2x)
Chorus (2x)
End Chorus (2x)
Pre Verse (1x)                  Im pretty sure this is right, but
                                for any questions, Email me at
                                Rocky10078@netscape.net
Comments