Mest - Slow Motion Chords & Tabs

 

Slow Motion Chords & Tabs

Mest Chords & Tabs

Version: 3 Type: Tab 0 ratings
1 star 2 stars 3 stars 4 stars 5 stars
comments

Slow Motion Tab

this is submitted by nic
aka evil tabber (some poeple called me thatover on punk hardcore) so whatver. 

one of the greatest punk/ska songs of all time

mest rules


e|----------------------------------
b|-8/9--9--7--999--7-----5------7---
g|-8/9--9--8--------8---6-6----8-8--(x2)
d|-8/9--9--9-----------7------9-----
a|----------------------------------
e|----------------------------------
[ Tab from: http://www.guitartabs.cc/tabs/m/mest/slow_motion_tab_ver_3.html ]
(ska upstrokes)
its slow motion. ya got me trapped inside this world
e|--------------------------------------------------------
b|--99--99--77--77--77--77--77--77------------------------
g|--99--99--88--88--66--66--88--88------(X 4)-------------
d|--99--99--99--99--55--55--99--99------------------------
a|--------------------------------------------------------
e|--------------------------------------------------------

crank up the distortion and it goes into some heavy punk like stuff
i dont know how to play that i havent figured it out yet. listen to
the song to find out the rythm and if you fiond out how to play the
heeavy part email me at powayspartans@hotmail.com 
thanks
~!nic!~
Comments