Mest - Slow Motion Chords & Tabs

 

Slow Motion Chords & Tabs

Mest Chords & Tabs

Version: 1 Type: Tab 0 ratings
1 star 2 stars 3 stars 4 stars 5 stars
comments

Slow Motion Tab

-------------------------------------------------------------------------------
			     SLOW MOTION - MEST
-------------------------------------------------------------------------------


By:KURT CASE:
SCNDSTRSK8ER@AOL.COM


INTRO:
e|---------------------------------------------------------------------------|
B|-8\9--7--9-9-9-9P7---------5----------7------------------------------------|
G|-8\9--8------------8-----6---6------8---8----------------------------------|
D|-8\9--9----------------7----------9-------------( 2X )---------------------------|
A|---------------------------------------------------------------------------|
E|---------------------------------------------------------------------------|



SKA UPSTROKES:
e|---------------------------------------------------------------------------|
B|-9-9--9-9---7-7--7-7---5-5--5-5---7-7--7-7---------------------------------|
G|-9-9--9-9---8-8--8-8---6-6--6-6---8-8--8-8--------( 4X )-------------------|
D|-9-9--9-9---9-9--9-9---7-7--7-7---9-9--9-9---------------------------------|
A|---------------------------------------------------------------------------|
E|---------------------------------------------------------------------------|



VERSE1:
e|----------------------------------------------------------------------------------|
B|----------------------------------------------------------------------------------|
G|-9999999999999999-----------------------------------------------------------------|
D|-9999999999999999--6666666666666666--7777777777777777--9999999999999999---( 4X )--|
A|-7777777777777777--6666666666666666--7777777777777777--9999999999999999-----------|
E|-------------------4444444444444444--5555555555555555--7777777777777777-----------|


[ Tab from: http://www.guitartabs.cc/tabs/m/mest/slow_motion_tab.html ]
VERSE2:                                      VERSE3:
e|------------------------------------------I---------------------------------------------|
B|------------------------------------------I---------------------------------------------|
G|-9-9-----------------9-9------------------I--99999999-----------------------------------|
D|-9-9--9-9--7-7--9-9--9-9--9-9--7-7--9999--I--99999999--99999999-77777777-99999999-( 2X )|
A|-7-7--7-7--7-7--9-9--7-7--9-9--7-7--9999--I--77777777--99999999-77777777-99999999-------|
E|------7-7--5-5--7-7-------7-7--5-5--7777--I------------77777777-55555555-77777777-------|



play verse1 (1x) and then this
e|---------------------------------------------------------------------------|
B|---------------------------------------------------------------------------|
G|-x-x-9-x-x-9---------------------------------------------------------------|
D|-x-x-9-x-x-9--x-x-6-x-x-6--x-x-7-x-x-7--x-x-9-x-x-9--( 2x )----------------|
A|-x-x-7-x-x-7--x-x-6-x-x-6--x-x-7-x-x-7--x-x-9-x-x-9------------------------|
E|--------------x-x-4-x-x-4--x-x-5-x-x-5--x-x-7-x-x-7------------------------|



then...
e|---------------------------------------------------------------------------|
B|---------------------------------------------------------------------------|
G|-9-9------------11-9-8-9-8-9-9---------------------------------------------|
D|-9-9--6-6--7-7--11-9-8-9-8-9-9--6-6--7-7--9-9-9-9--------------------------|
A|-7-7--6-6--7-7---9-7-6-7-6-7-7--6-6--7-7--9-9-9-9--------------------------|
E|------4-4--5-5------------------4-4--5-5--7-7-7-7--------------------------|



then play verse1 (1x)

then verse2      

then verse3

==========================================================================================

Comments