Mest - Say So Long Chords & Tabs

 

Say So Long Chords & Tabs

Mest Chords & Tabs

Version: 1 Type: Bass Tab 0 ratings
1 star 2 stars 3 stars 4 stars 5 stars
comments

Say So Long Bass Tab

------------------------------------------------------------------------------- 
                          SAY SO LONG - Mest 
------------------------------------------------------------------------------- 

By:Blinkboy82@aol.com 

Intro-X2 
G|---------------------------------------------------------------------------| 
D|---------------------------------------------------------------------------| 
A|-2-------------------------------------------------------------------------| 
E|---2----4--0-0--2-2--4--0-0--2-2-------------------------------------------| 

Chorus-X4 
G|---------------------------------------------------------------------------| 
D|---------------------------------------------------------------------------| 
A|-2-2-2-2-2-----------------------------------------------------------------| 
E|-----------2-2-2-2-2---4-4-4-4-4--0-0-0-0-0--------------------------------| 

Verse-X2 
G|---------------------------------------------------------------------------| 
D|---------------------------------------------------------------------------| 
A|-2-2-2-2-2-2-2-2-2-2-2-2---------------------------------------------------| 
E|-------------------------2-2-2-2-2-2-2-2--4-0-0-2-2--4-0-0-2-2-------------| 
[ Tab from: http://www.guitartabs.cc/tabs/m/mest/say_so_long_btab.html ]
Breakdown-X2 
G|---------------------------------------------------------------------------| 
D|---------------------------------------------------------------------------| 
A|-2-2-2----------6-7-7---6-7-7-7--------------------------------------------| 
E|-------4-4-4-4-------------------------------------------------------------| 

Bridge 
G|------------------------------------------------------------------------------------------| 
D|------------------------------------------------------------------------------------------| 
A|---------------------------------2-2-2-2-2--X3-/-4-4-4-4-4--0-0-0-0-0-0--2-2-2-2-2-2-2-2--| 
E|-4-4-4-4-4--0-0-0-0-0--2-2-2-2-2----------------------------------------------------------| 

Chorus 2-X2 
G|---------------------------------------------------------------------------| 
D|---------------------------------------------------------------------------| 
A|-4-4-4-4-4-----------------------------------------------------------------| 
E|------------4-4-4-4-4--6-6-6-6-6--2-2-2-2--4-------------------------------| 

Outro 
G|---------------------------------------------------------------------------| 
D|---------------------------------------------------------------------------| 
A|-/4/4/4/4---------------------------------------------44-------------------| 
E|-----------/4/4/4/4--/6/6/6/6--/2/2/2/2--X2--\--2-44-----------------------| 

Intro-X2 
Chorus-X4 
Verse-X2 
Chorus-X4 
Breakdown-X2 
Bridge 
Chorus 2-X4 
Outro 

===============================================================================
Comments