Mest - Rebel With A Reason Chords & Tabs

 

Rebel With A Reason Chords & Tabs

Mest Chords & Tabs

Version: 1 Type: Bass Tab 0 ratings
1 star 2 stars 3 stars 4 stars 5 stars
comments

Rebel With A Reason Bass Tab

Standard tuning

--------------------------------------------------|
----------3-4-55-5-5--4---------------------------|
--33--3-3----------------2-33-3-3-2----------5-2--|
-------------------------------------2-33--3------|x7

--------------------------------------|
--------------------2h3p2---2h3p2-----|
-----2-3-2-0-4-5-4--------3-------3---|
--3-----------------------------------|x2

--------------------------------------------------------|
--------------------------------------------------------|
-----2-3-2-0-4-5-4--------3-3--0-0-----------------2-3--|
--3----------------------------------3/1--1-5--3-3------|

CHORUS:
------------------------------------------|
------------------------------------------|
------------33333333------------33333333--|
--1111-3333-----------1111-3333-----------|

-----------------------------------------------------|
-----------------------------------------------------|
--------------3-3--0-0-------------33333333----------|
--1111-3333------------3-1111-3333-------------------|


VERSE 2
------------------------------4h5p4-0-7-5p4-5p4----|
-----2h3p2----5-3p2-3p2-----5-------------------5--|
--3--------3------------3--------------------------|
---------------------------------------------------|
[ Tab from: http://www.guitartabs.cc/tabs/m/mest/rebel_with_a_reason_btab.html ]
------------------------------------------------|
-----2h3p2----5-3p2-3p2-------------------------|
--3--------3------------3----2h3p2---5-3-2------|
---------------------------3-------3-------3----|

------------------------------4h5p4-0-7-5p4-5p4----|
-----2h3p2----5-3p2-3p2-----5-------------------5--|
--3--------3------------3--------------------------|
---------------------------------------------------|

------------------------------------------------|
-----2h3p2----5-3p2-3p2-------------------------|
--3--------3------------3----2h3p2---5-3-2------|
---------------------------3-------3-------3----|

------------------------------------------------------------|
-------------2h3p2----2h3p2--------------2h3p2---2h3h5-3----|
----------3--------3--------3---------3--------3---------3--|
--1---3------------------------1---3------------------------|

------------------------------------------------|
------------------------------------------------|
---------3-3--0-0------------------3-33-3-3-33--|
--1---3-----------3/1--1111--3333---------------|

------------------------------------------------|
------------------------------------------------|
-------------3-333------------------3-3333------|
--1-11--3-33------------1-11--3-33--------------|

Play CHORUS

-------------------------|
-------------------------|
-------------------------|
--5555--1111--33333333---|x5

-----------------------------------------------------|
----------3-4-55-5-5--4------------------------------|
--33--3-3----------------2-33-3-3-2---------------3--|
-------------------------------------2-33--3-1-3-----|
Comments