Mest - Opinions Chords & Tabs

 

Opinions Chords & Tabs

Mest Chords & Tabs

Version: 2 Type: Tab 0 ratings
1 star 2 stars 3 stars 4 stars 5 stars
comments

Opinions Tab

-------------------------------------------------------------------------------
Opinions - Mest
-------------------------------------------------------------------------------

Again another simple song by a great band, Iíve included everything you just
have to put it together but thatís not hard so enjoy, and donít forget to rate
[ Tab from: http://www.guitartabs.cc/tabs/m/mest/opinions_tab_ver_2.html ]
Intro	(guitar 1)
e|-------------------------------------------------------------|
B|-------------------------------------------------------------|
G|-----11-----11-----11-----11-----11----11--------------------|
D|-9------9------9------9------9------9-------2-222222222-2----|
A|--------------------------------------------2-222222222-2----|
E|--------------------------------------------0-000000000-0----|
	(guitar 2)		          *********
e|-------------------------------------------------------------|
B|-------------------------------------------------------------|
G|-------------------------------------------------------------|
D|-----4------4-------------------------------2-222222222-2----|
A|-2------2----------6------6------4------4---2-222222222-2----|
E|---------------4------4------2------2-------0-000000000-0----|
					 ********
Verse 	(both guitars)
e|-------------------------------------------------|
B|-------------------------------------------------|
G|-44444444----------------------------------------|
D|-44444444-66666666-44444444-44-66-22222222-4-----|
A|-22222222-66666666-44444444-44-66-22222222-4-----|
E|----------44444444-22222222-22-44-00000000-2-----|
                      *******
Verse cont(both guitars)
e|-------------------------------------------------|
B|-------------------------------------------------|
G|-44444444----------------------------------------|
D|-44444444-66666666-44444444-44-66-22222222-4-----|
A|-22222222-66666666-44444444-44-66-22222222-4-----|
E|----------44444444-22222222-22-44-00000000-2-----|
                                     *******
Chorus	(both guitars)     
e|-----------------------------------------|
B|-----------------------------------------|
G|-44444444--------------------------------|
D|-44444444-22222222-66666666-44444444-----|
A|-22222222-22222222-66666666-44444444-----|
E|----------00000000-44444444-22222222-----|

Post Chorus  (both guitars)
e|-------------------|
B|-------------------|
G|-44----------------|
D|-44-22-66-44-------|
A|-22-22-66-44-------|
E|----00-44-22-------|

Verse	(both guitars)
e|---------------------------------------------------------|
B|---------------------------------------------------------|
G|-4-------------------------------------------------------|
D|-4------66666666-44444444-44-66-22222222-22222222-4444---|
A|-2------66666666-44444444-44-66-22222222-22222222-4444---|
E|--------44444444-22222222-22-44-00000000-00000000-2222---|

Bridge	(both guitars)
e|---------------------------------------------------|
B|---------------------------------------------------|
G|-------44-44---------------------12(bu)------------|
D|-22-22-44-44---------------------12(bu)------------|
A|-22-22-22-22---------------------------------------|
E|-00-00---------------------------------------------|

Right itís all there correct so just rate it and enjoy playing

e-mail funkeymonkey10@hotmail.com

===============================================================================
Comments