Mest - Night Alone Chords & Tabs

 

Night Alone Chords & Tabs

Mest Chords & Tabs

Version: 1 Type: Tab 0 ratings
1 star 2 stars 3 stars 4 stars 5 stars
comments

Night Alone Tab

Now this is the actual intro of the Mest Song "Night Alone".

Guitar 1
(Clean, not distorted)
E-------------------------------------------------
B-----0---0-------0---0--------0---0-----0---0----
G---1---1---1---1---1----1---3---3---3------------ X 4
D--------------------------------------4---4---4--
A-------------------------------------------------
E-------------------------------------------------

Guitar 2(distorted,and palm muted, comes in after the 2nd time guitar 1 plays)
[ Tab from: http://www.guitartabs.cc/tabs/m/mest/night_alone_tab.html ]
E---------------------------------------------------------
B---------------------------------------------------------
G--------------------------------------------------------- X 2
D---6-6---8-8---9-9---6-6---6-6---8-8---9-9---------------
A---6-6---8-8---9-9---6-6---6-6---8-8---9-9---------------
E---4-4---6-6---7-7---4-4---4-4---6-6---7-7---------------

*After the 2nd time, it gets faster for guitar 1 just alittle bit though easy to do.
I'm workin on the whole song so hopefully i will get it done soon!
Please E-mail me if you have any questions at FiNeElEmEnTaL@msn.com
Comments