Mest - Last Time Chords & Tabs

 

Last Time Chords & Tabs

Mest Chords & Tabs

Version: 1 Type: Bass Tab 0 ratings
1 star 2 stars 3 stars 4 stars 5 stars
comments

Last Time Bass Tab

   
Standard Tuning

Intro
G|-----------------------|
D|-----------------------|
A|-2/9-9-9-9-9-9-9-9-9-9-|
E|-----------------------|

Verse
G|------------------------------------------------------|
D|------------------------------------------------------|
A|------------------------------------------------------|x3
E|-7-7--7-7-7--7-7-7--7-7-7--7-0-0--0-0-0--0-2-2--2-2-2-|

G|----------------------------------------------------|
D|----------------------------------------------------|
A|---------------------------7-7--7-7-7--7-9-9--9-9-9-|
E|-7-7--7-7-7--7-7--7-7-7--7--------------------------|

Verse
G|-----------------------------------------|
D|-----------------------------------------|
A|-7-7-7-7-7-----------7-7-7-7-7-----------|
E|-----------7-7-7-7-7-----------7-7-7-7-7-|

G|-----------------------------------------|
D|-----------------------------------------|
A|---------------------4-4-4-4-4-----------|
E|-0-0-0-0-0-7-7-7-7-7-----------5-5-5-5-5-|

G|-----------------------------------------|
D|-----------------------------------------|
A|-7-7-7-7-7-----------7-7-7-7-7-----------|
E|-----------7-7-7-7-7-----------7-7-7-7-7-|

G|-----------------------------------------|
D|-----------------------------------------|
A|---------------------4-4-4-4-4-----------|
E|-0-0-0-0-0-7-7-7-7-7-----------5-5-5-5-5-|

Chorus 2
G|------------------------------------------------|
D|------------------------------------------------|
A|-------------------------7-7--7-7-7--9-9--9-9-9-|x2
E|-7-7--7-7-7--7-7--7-7-7-------------------------|

G|------------------------------------------------------|
D|------------------------------------------------------|
A|------------------------------------------------------|x2
E|-7-7--7-7-7--7-7-7--7-7-7--7-0-0--0-0-0--0-2-2--2-2-2-|

Verse 2
G|-----------------------------------------|
D|-----------------------------------------|
A|-7-7-7-7-7-----------7-7-7-7-7-----------|
E|-----------7-7-7-7-7-----------7-7-7-7-7-|

G|-----------------------------------------|
D|-----------------------------------------|
A|---------------------4-4-4-4-4-----------|
E|-0-0-0-0-0-7-7-7-7-7-----------5-5-5-5-5-|

G|-----------------------------------------|
D|-----------------------------------------|
A|-7-7-7-7-7-----------7-7-7-7-7-----------|
E|-----------7-7-7-7-7-----------7-7-7-7-7-|

G|-----------------------------------------|
D|-----------------------------------------|
A|---------------------4-4-4-4-4-----------|
E|-0-0-0-0-0-7-7-7-7-7-----------5-5-5-5-5-|

G|-------------------------------|
D|-------------------------------|
A|-----------9-9-9-9-9-9-9-9-9-9-|
E|-5-5-5-5-5---------------------|
[ Tab from: http://www.guitartabs.cc/tabs/m/mest/last_time_btab.html ]
BRIDGE
G|-----------------------------------------------------------------|
D|-----------------------------------------------------------------|
A|---------------------------------------7--7-7--7-7--7-7-5-9--9-9-|
E|-7--7-7--7-7--7-7-5-4--4-4--4-4--4-4-2---------------------------|

G|---------------------|
D|---------------------|
A|-9-9-9-7-7-----------|
E|-----------10-10-9-9-|

G|-----------------------------------------------------------------------|
D|-----------------------------------------------------------------------|
A|-----------------------------------------------------------------------|
E|7--7-7--7-7--7-7-5-4--4-4--4-4--4-4-2-0--0-0--0-0--0-0-2--2-2--2-2--2-2|

BRIDGE (the rest of it)
G|-----------------------------------------------------------------------|
D|-----------------------------------------------------------------------|
A|-----------------------------------------------------------------------|
E|7-7-7-7-7-7-7-7-7-4-4-4-4-4-4-4-4-4-2-2-2-2-2-2-2-2-2-0-0-0-0-2-2-2-2-2|

G|-----------------------------------------------------------------------|
D|-----------------------------------------------------------------------|
A|-----------------------------------------------------------------------|
E|7-7-7-7-7-7-7-7-7-4-4-4-4-4-4-4-4-4-2-2-2-2-2-2-2-2-2-0-0-0-0-0-0-0-0-0|

G|------------------------------------------|
D|------------------------------------------|
A|------------------------------------------|
E|-2-2-2-2-2-2-2-2-2-2-2-2-2-2-2-/9-9-9-9-9-|

G|-----------------------------------------|
D|-----------------------------------------|
A|-----------------------------------------|x2
E|-7--7-7--7-7--7-7--7-0--0-0--0-2--2-2--2-|

G|---------------------------------------|
D|---------------------------------------|
A|---------------------------------------|
E|-7-7---0-0-0-0-0-0-0-0-2-2-2-2-2-2-2-2-|

G|-----------------------------------------------------------------|
D|-----------------------------------------------------------------|
A|-----------------------------------------------------------------|
E|-7-7-7-7-7-7-7-7-7-7-7-7-7-7-7-7-0-0-0-0-0-0-0-0-2-2-2-2-2-2-2-2-|

G|------------------------------------------------------|
D|------------------------------------------------------|
A|------------------------------------------------------|
E|-7-7--7-7-7--7-7-7--7-7-7--7-0-0--0-0-0--0-2-2--2-2-2-|

G|----------------------------------------------------------------------|
D|----------------------------------------------------------------------|
A|----------------------------------------------------------------------|
E|-7-7--7-7-7--7-7-7--7-7-7--7-12-12--12-12-12--12-14-14--14-14-12-11-7-|
Comments