Mest - Its Over Chords & Tabs

 

Its Over Chords & Tabs

Mest Chords & Tabs

Version: 3 Type: Tab 0 ratings
1 star 2 stars 3 stars 4 stars 5 stars
comments

Its Over Tab

 heres a good song from the band Mest called its over have fun!

   my first tab!        my e mail adress is - jms100@mchsi.com if you got any questions or comments!

 (standard tuning i think)

  intro -

 --------------------------------------------------|
---------------------------------------------------|
---------------------------------------------------|
----5----------5-5-----------5---------------------|      Youve been waiting for...
----3----------3-3-----------3---------------------|
---------------------------------------------------|


    ...I never asked you why...                             ...Your head...

---------------------------------------------------------------------------|
---------------------------------------------------------------------------|
---------------------------------------------------------------------------|
--5-5-5-5-5-5-5-5----------------------------------------------------------|
--3-3-3-3-3-3-3-3------5-5-5-5-5-5-5-5-------3-3-3-3-3-3-3-3---5---3--5----|
-----------------------3-3-3-3-3-3-3-3-------1-1-1-1-1-1-1-1---3---1--3----|
  * * * * * * * *      * * * * * * * *       * * * * * * * *

 Verse -

...But I couldnt tell...

------------------------------------------------------------------|
------------------------------------------------------------------|
------------------------------------------------------------------|
--5-5-5-5-5-5-5-5-------------------------------------------------|
--3-3-3-3-3-3-3-3------5-5-5-5-5-5-5-5-------3-3-3-3-3-3-3-3------|
-----------------------3-3-3-3-3-3-3-3-------1-1-1-1-1-1-1-1------|

----------------------|
----------------------|
----------------------|          (repeat once)
----------------------|
---5-5-5-5-5-5-5-5----|
---3-3-3-3-3-3-3-3----|

Chorus -

 ...She looked at you....

------------------------------------------------|
------------------------------------------------|          repeat 4 times
------------------------------------------------|
--5-5-5-----------------------------------------|
--3-3-3------5-5-5-------3-3-3--3-3-3-----------|
-------------3-3-3-------1-1-1--1-1-1-----------|

Verse 2 -

 ... She says she doesnt know...

------------------------------------------------------------------|
------------------------------------------------------------------|
------------------------------------------------------------------|
--5-5-5-5-5-5-5-5-------------------------------------------------|
--3-3-3-3-3-3-3-3------5-5-5-5-5-5-5-5-------3-3-3-3-3-3-3-3------|
-----------------------3-3-3-3-3-3-3-3-------1-1-1-1-1-1-1-1------|
  * * * * * * * *      * * * * * * * *       * * * * * * * *
-----------------------------------------------------------------|
-----------------------------------------------------------------|
-----------------------------------------------------------------|
-------------------------5-5-5-5-5-5-5-5-------------------------|
---5-5-5-5-5-5-5-5-------3-3-3-3-3-3-3-3-----5-5-5-5-5-5-5-5-----|
---3-3-3-3-3-3-3-3---------------------------3-3-3-3-3-3-3-3-----|
   * * * * * * * *       * * * * * * * *     * * * * * * * *

---------------------------------------------------------------------------|
---------------------------------------------------------------------------| ...But this keeps up...
---------------------------------------------------------------------------|
-----------------------------------5-5-5-5---------------------------------|
-3-3-3-3-3-3-3-3-----5--3--5-------3-3-3-3----5-5-5-5---3-3-3-3---5-5-5-5--|
-1-1-1-1-1-1-1-1-----3--1--3------------------3-3-3-3---1-1-1-1---3-3-3-3--|
 * * * * * * * *
[ Tab from: http://www.guitartabs.cc/tabs/m/mest/its_over_tab_ver_3.html ]
...But you so F%$#ing...
------------------------------------------------------------------|
------------------------------------------------------------------|
------------------------------------------------------------------|
--5-5-5-5-5-5-5-5-------------------------------------------------|
--3-3-3-3-3-3-3-3------5-5-5-5-5-5-5-5-------3-3-3-3-3-3-3-3------|
-----------------------3-3-3-3-3-3-3-3-------1-1-1-1-1-1-1-1------|

------------------------------|
------------------------------|
------------------------------|
------------------------------|       ...realize your all the same....
---5-5-5-5-5-5-5-5------------|
---3-3-3-3-3-3-3-3------------|

  Chorus -

 ...She looked at you....

------------------------------------------------|
------------------------------------------------|          repeat 4 times
------------------------------------------------|
--5-5-5-----------------------------------------|
--3-3-3------5-5-5-------3-3-3--3-3-3-----------|
-------------3-3-3-------1-1-1--1-1-1-----------|


...cause its over, its over...
----------------------------------------|
----------------------------------------|
----------------------------------------|       (repeat once)
--5-5-5-5-------------------------------|
--3-3-3-3-----5-5-5-5----3-3-3-3--------|
--------------3-3-3-3----1-1-1-1--------|


Solo - NOTE: i think there is some effect used here, but it sounds ok without it

-----------------------------------------------------|
-----------------------------------------------------|
-----------------------------------------------11----|let ring
---9--7--5--9--7--5--9--7--5--5--7--9--11--12--------|
-----------------------------------------------------|
-----------------------------------------------------|


...Tell them lies and they will belive you, When your honest they will...

------------------------------------------------------------------|
------------------------------------------------------------------|
------------------------------------------------------------------|
--5-5-5-5-5-5-5-5-------------------------------------------------|
--3-3-3-3-3-3-3-3------5-5-5-5-5-5-5-5-------3-3-3-3-3-3-3-3------|
-----------------------3-3-3-3-3-3-3-3-------1-1-1-1-1-1-1-1------|
  * * * * * * * *      * * * * * * * *       * * * * * * * *
-----------------------------------------------------------------|
-----------------------------------------------------------------|
-----------------------------------------------------------------|
-------------------------5-5-5-5-5-5-5-5-------------------------|
---5-5-5-5-5-5-5-5-------3-3-3-3-3-3-3-3-----5-5-5-5-5-5-5-5-----|
---3-3-3-3-3-3-3-3---------------------------3-3-3-3-3-3-3-3-----|
   * * * * * * * *       * * * * * * * *     * * * * * * * *

------------------------------------|
------------------------------------|  ...and ill be here when she says...
------------------------------------|
------------------------------------|
--3-3-3-3-3-3-3-3------3------55555-|
--1-1-1-1-1-1-1-1------1------33333-|
  * * * * * * * *


 Chorus -

 ...She looked at you....

------------------------------------------------|
------------------------------------------------|          repeat 4 times
------------------------------------------------|
--5-5-5-----------------------------------------|
--3-3-3------5-5-5-------3-3-3--3-3-3-----------|
-------------3-3-3-------1-1-1--1-1-1-----------|


...cause its over, its over...
--------------------------------------|
--------------------------------------|
--------------------------------------|
--5-5-5-5-----------------------------|
--3-3-3-3-----5-5-5-5----3-3-3-3------|
--------------3-3-3-3----1-1-1-1------|


NOTE: i think the solo uses some effect, but it still sounds ok to me without it.

 and there you have Mest, "It's Over"
Comments