Mest - Its Over Chords & Tabs

 

Its Over Chords & Tabs

Mest Chords & Tabs

Version: 1 Type: Tab 0 ratings
1 star 2 stars 3 stars 4 stars 5 stars
comments

Its Over Tab

   
Mest
"It's Over"
Destination Unknown
tabbed by ginovl182

intro:
e----------
B----------
G-5--55--5-
D-5--55--5-
A-3--33--3-
E----------

verse:
e-------------------------------------
B-------------------------------------
G-55555555----------------------------
D-55555555-555555555-33333333-5--3--5-
A-33333333-555555555-33333333-5--3--5-
E----------333333333-11111111-3--1--3-
    p.m.      p.m.      p.m.
(continue the rest of the verse not palm muted)
[ Tab from: http://www.guitartabs.cc/tabs/m/mest/its_over_tab.html ]
chorus:
e------------------------
B------------------------
G-5555-------------------
D-5555--5555--3333--3333-
A-3333--5555--3333--3333-
E-------3333--1111--1111-

bridge:guitar1(quick upstrokes)
e------------
B------------
G-5--5--5--5-
D-5--5--5--5-
A-3--3--3--3-
E------------

guitar2:p.m.
e-------------------
B-------------------
G-------------------
D-55555555----------
A-33333333-55555555-
E----------33333333-

end:
e---
B---
G-5-
D-5-
A-3-
E---

I havn't figured out the solo yet, but I'll send it another time.
Comments