Mest - Electric Baby Chords & Tabs

 

Electric Baby Chords & Tabs

Mest Chords & Tabs

Version: 1 Type: Tab 0 ratings
1 star 2 stars 3 stars 4 stars 5 stars
comments

Electric Baby Tab

   
H=Hold
x=hold going back

Intro:
E----5-----------------------------|
A----7(6X)-4-----5-----7-----------|
D----7-----6(6X)-7(6X)-9(6X)-------|
G----------6-----7-----9-------(2x)|
B----------------------------------|
E----------------------------------|
Verse 1 & 2:"there's two loves..."
            "well i would do..."
E--5555H--------------------------------|
A--7777H---4444H---5555H---7777H--------|
D--7777H---6666H---7777H---9999H--(3x)--|
G----------6666H---7777H---9999H--------|
B---------------------------------------|
E---------------------------------------|
"w/out one of them..."
E--5555H--------------------------------|
A--7777H---4444H---555555-77777H--------|
D--7777H---6666H---777777-99999H--------|
G----------6666H---777777-99999H--------|
B---------------------------------------|
E---------------------------------------|
Chorus:
(use the intro tabs)

Solo: 
G---12--11--7--9---11x------------------|
B---------------------------------------|
[ Tab from: http://www.guitartabs.cc/tabs/m/mest/electric_baby_tab.html ]
Bridge:"i'm alone w/out you..."
E-----------------7777H-7777H-----------|
A--4444H-4444H----9999H-9999H-----------|
D--6666H-6666H----9999H-9999H-----------|
G--6666H-6666H--------------------------|
B---------------------------------------|
E---------------------------------------|
"i feel lost,i don't know what to do..."
E--4444H-4444H----5-----7---------------|
A--6666H-6666H----7(4X)-9(4x)-----------|
D--6666H-6666H----7-----9---------------|
G---------------------------------------|
B---------------------------------------|
E---------------------------------------|
            (repeat the bridge)
Solo:"i need you to stay..."
E---------------------------------------|
A---------------------------------------|
D---------------------------------------|
G--12--11--7--9---11--12-11-12----------|
B---------------------------------------|
E---------------------------------------|

E--5H---5H------------------------------|
A--7H---7H-4H---4H-5H---5H-7H--7H-------|
D--7H---7H-6H---6H-7H---7H-9H--9H-------|
G----------6H---6H-7H---7H-9H--9H-------|
B---------------------------------------|
E---------------------------------------|
       (use intro tabs after this)

(chorus)


that's all i know...
sorry if i got the wrong tabs,
it's my first time to write one...
Comments